  0
SECTION
  2
HEADER
  9
$ACADVER
  1
AC1015
  9
$ACADMAINTVER
 70
     6
  9
$DWGCODEPAGE
  3
ANSI_1252
  9
$INSBASE
 10
0.0
 20
0.0
 30
0.0
  9
$EXTMIN
 10
0.0
 20
0.0
 30
0.0
  9
$EXTMAX
 10
2100.0
 20
1485.0
 30
0.0
  9
$LIMMIN
 10
0.0
 20
0.0
  9
$LIMMAX
 10
2100.0
 20
1485.0
  9
$ORTHOMODE
 70
     0
  9
$REGENMODE
 70
     1
  9
$FILLMODE
 70
     1
  9
$QTEXTMODE
 70
     0
  9
$MIRRTEXT
 70
     1
  9
$LTSCALE
 40
5.0
  9
$ATTMODE
 70
     1
  9
$TEXTSIZE
 40
12.5
  9
$TRACEWID
 40
1.0
  9
$TEXTSTYLE
  7
Standard
  9
$CLAYER
  8
0
  9
$CELTYPE
  6
ByLayer
  9
$CECOLOR
 62
   256
  9
$CELTSCALE
 40
1.0
  9
$DISPSILH
 70
     0
  9
$DIMSCALE
 40
1.0
  9
$DIMASZ
 40
12.5
  9
$DIMEXO
 40
0.0
  9
$DIMDLI
 40
3.75
  9
$DIMRND
 40
0.0
  9
$DIMDLE
 40
0.0
  9
$DIMEXE
 40
5.0
  9
$DIMTP
 40
0.0
  9
$DIMTM
 40
0.0
  9
$DIMTXT
 40
12.5
  9
$DIMCEN
 40
2.5
  9
$DIMTSZ
 40
0.0
  9
$DIMTOL
 70
     0
  9
$DIMLIM
 70
     0
  9
$DIMTIH
 70
     1
  9
$DIMTOH
 70
     1
  9
$DIMSE1
 70
     0
  9
$DIMSE2
 70
     0
  9
$DIMTAD
 70
     1
  9
$DIMZIN
 70
     0
  9
$DIMBLK
  1

  9
$DIMASO
 70
     1
  9
$DIMSHO
 70
     1
  9
$DIMPOST
  1

  9
$DIMAPOST
  1

  9
$DIMALT
 70
     0
  9
$DIMALTD
 70
     3
  9
$DIMALTF
 40
0.0393700787
  9
$DIMLFAC
 40
1.0
  9
$DIMTOFL
 70
     1
  9
$DIMTVP
 40
0.0
  9
$DIMTIX
 70
     0
  9
$DIMSOXD
 70
     0
  9
$DIMSAH
 70
     0
  9
$DIMBLK1
  1

  9
$DIMBLK2
  1

  9
$DIMSTYLE
  2
ISO-25
  9
$DIMCLRD
 70
     0
  9
$DIMCLRE
 70
     0
  9
$DIMCLRT
 70
     0
  9
$DIMTFAC
 40
1.0
  9
$DIMGAP
 40
7.62
  9
$DIMJUST
 70
     0
  9
$DIMSD1
 70
     0
  9
$DIMSD2
 70
     0
  9
$DIMTOLJ
 70
     0
  9
$DIMTZIN
 70
     0
  9
$DIMALTZ
 70
     0
  9
$DIMALTTZ
 70
     0
  9
$DIMUPT
 70
     0
  9
$DIMDEC
 70
     2
  9
$DIMTDEC
 70
     2
  9
$DIMALTU
 70
     2
  9
$DIMALTTD
 70
     3
  9
$DIMTXSTY
  7
Standard
  9
$DIMAUNIT
 70
     0
  9
$DIMADEC
 70
     2
  9
$DIMALTRND
 40
0.0
  9
$DIMAZIN
 70
     0
  9
$DIMDSEP
 70
    44
  9
$DIMATFIT
 70
     3
  9
$DIMFRAC
 70
     0
  9
$DIMLDRBLK
  1

  9
$DIMLUNIT
 70
     2
  9
$DIMLWD
 70
    -2
  9
$DIMLWE
 70
    -2
  9
$DIMTMOVE
 70
     0
  9
$LUNITS
 70
     2
  9
$LUPREC
 70
     1
  9
$SKETCHINC
 40
1.0
  9
$FILLETRAD
 40
10.0
  9
$AUNITS
 70
     0
  9
$AUPREC
 70
     2
  9
$MENU
  1
.
  9
$ELEVATION
 40
0.0
  9
$PELEVATION
 40
0.0
  9
$THICKNESS
 40
0.0
  9
$LIMCHECK
 70
     0
  9
$CHAMFERA
 40
0.0
  9
$CHAMFERB
 40
0.0
  9
$CHAMFERC
 40
0.0
  9
$CHAMFERD
 40
0.0
  9
$SKPOLY
 70
     0
  9
$TDCREATE
 40
2458907.633805151
  9
$TDUCREATE
 40
2458907.404638484
  9
$TDUPDATE
 40
2458907.633808449
  9
$TDUUPDATE
 40
2458907.404641782
  9
$TDINDWG
 40
0.0000000116
  9
$TDUSRTIMER
 40
0.0000000116
  9
$USRTIMER
 70
     1
  9
$ANGBASE
 50
0.0
  9
$ANGDIR
 70
     0
  9
$PDMODE
 70
     0
  9
$PDSIZE
 40
-1.0
  9
$PLINEWID
 40
0.0
  9
$SPLFRAME
 70
     0
  9
$SPLINETYPE
 70
     6
  9
$SPLINESEGS
 70
     8
  9
$HANDSEED
  5
3B7
  9
$SURFTAB1
 70
     6
  9
$SURFTAB2
 70
     6
  9
$SURFTYPE
 70
     6
  9
$SURFU
 70
     6
  9
$SURFV
 70
     6
  9
$UCSBASE
  2

  9
$UCSNAME
  2

  9
$UCSORG
 10
0.0
 20
0.0
 30
0.0
  9
$UCSXDIR
 10
1.0
 20
0.0
 30
0.0
  9
$UCSYDIR
 10
0.0
 20
1.0
 30
0.0
  9
$UCSORTHOREF
  2

  9
$UCSORTHOVIEW
 70
     0
  9
$UCSORGTOP
 10
0.0
 20
0.0
 30
0.0
  9
$UCSORGBOTTOM
 10
0.0
 20
0.0
 30
0.0
  9
$UCSORGLEFT
 10
0.0
 20
0.0
 30
0.0
  9
$UCSORGRIGHT
 10
0.0
 20
0.0
 30
0.0
  9
$UCSORGFRONT
 10
0.0
 20
0.0
 30
0.0
  9
$UCSORGBACK
 10
0.0
 20
0.0
 30
0.0
  9
$PUCSBASE
  2

  9
$PUCSNAME
  2

  9
$PUCSORG
 10
0.0
 20
0.0
 30
0.0
  9
$PUCSXDIR
 10
1.0
 20
0.0
 30
0.0
  9
$PUCSYDIR
 10
0.0
 20
1.0
 30
0.0
  9
$PUCSORTHOREF
  2

  9
$PUCSORTHOVIEW
 70
     0
  9
$PUCSORGTOP
 10
0.0
 20
0.0
 30
0.0
  9
$PUCSORGBOTTOM
 10
0.0
 20
0.0
 30
0.0
  9
$PUCSORGLEFT
 10
0.0
 20
0.0
 30
0.0
  9
$PUCSORGRIGHT
 10
0.0
 20
0.0
 30
0.0
  9
$PUCSORGFRONT
 10
0.0
 20
0.0
 30
0.0
  9
$PUCSORGBACK
 10
0.0
 20
0.0
 30
0.0
  9
$USERI1
 70
     0
  9
$USERI2
 70
     0
  9
$USERI3
 70
     0
  9
$USERI4
 70
     0
  9
$USERI5
 70
     0
  9
$USERR1
 40
0.0
  9
$USERR2
 40
0.0
  9
$USERR3
 40
0.0
  9
$USERR4
 40
0.0
  9
$USERR5
 40
0.0
  9
$WORLDVIEW
 70
     1
  9
$SHADEDGE
 70
     3
  9
$SHADEDIF
 70
    70
  9
$TILEMODE
 70
     1
  9
$MAXACTVP
 70
    64
  9
$PINSBASE
 10
0.0
 20
0.0
 30
0.0
  9
$PLIMCHECK
 70
     0
  9
$PEXTMIN
 10
1.0000000000E+20
 20
1.0000000000E+20
 30
1.0000000000E+20
  9
$PEXTMAX
 10
-1.0000000000E+20
 20
-1.0000000000E+20
 30
-1.0000000000E+20
  9
$PLIMMIN
 10
0.0
 20
0.0
  9
$PLIMMAX
 10
420.0
 20
297.0
  9
$UNITMODE
 70
     0
  9
$VISRETAIN
 70
     1
  9
$PLINEGEN
 70
     0
  9
$PSLTSCALE
 70
     1
  9
$TREEDEPTH
 70
  3020
  9
$CMLSTYLE
  2
Standard
  9
$CMLJUST
 70
     0
  9
$CMLSCALE
 40
20.0
  9
$PROXYGRAPHICS
 70
     1
  9
$MEASUREMENT
 70
     1
  9
$CELWEIGHT
370
    -1
  9
$ENDCAPS
280
     0
  9
$JOINSTYLE
280
     0
  9
$LWDISPLAY
290
     1
  9
$INSUNITS
 70
     4
  9
$HYPERLINKBASE
  1

  9
$STYLESHEET
  1

  9
$XEDIT
290
     1
  9
$CEPSNTYPE
380
     0
  9
$PSTYLEMODE
290
     1
  9
$FINGERPRINTGUID
  2
{ba522220-72a4-4d26-99f3-54bd4faeead3}
  9
$VERSIONGUID
  2
{FAEB1C32-E019-11D5-929B-00C0DF256EC4}
  9
$EXTNAMES
290
     1
  9
$PSVPSCALE
 40
0.0
  9
$OLESTARTUP
290
     0
  0
ENDSEC
  0
SECTION
  2
CLASSES
  0
CLASS
  1
ACDBDICTIONARYWDFLT
  2
AcDbDictionaryWithDefault
  3
ObjectDBX Classes
 90
        0
280
     0
281
     0
  0
CLASS
  1
VISUALSTYLE
  2
AcDbVisualStyle
  3
ObjectDBX Classes
 90
     4095
280
     0
281
     0
  0
CLASS
  1
MATERIAL
  2
AcDbMaterial
  3
ObjectDBX Classes
 90
     1153
280
     0
281
     0
  0
CLASS
  1
SCALE
  2
AcDbScale
  3
ObjectDBX Classes
 90
     1153
280
     0
281
     0
  0
CLASS
  1
TABLESTYLE
  2
AcDbTableStyle
  3
ObjectDBX Classes
 90
     4095
280
     0
281
     0
  0
CLASS
  1
MLEADERSTYLE
  2
AcDbMLeaderStyle
  3
ACDB_MLEADERSTYLE_CLASS
 90
     4095
280
     0
281
     0
  0
CLASS
  1
SUN
  2
AcDbSun
  3
SCENEOE
 90
     1153
280
     0
281
     0
  0
CLASS
  1
ACDBPLACEHOLDER
  2
AcDbPlaceHolder
  3
ObjectDBX Classes
 90
        0
280
     0
281
     0
  0
CLASS
  1
LAYOUT
  2
AcDbLayout
  3
ObjectDBX Classes
 90
        0
280
     0
281
     0
  0
ENDSEC
  0
SECTION
  2
TABLES
  0
TABLE
  2
VPORT
  5
8
330
0
100
AcDbSymbolTable
 70
     1
  0
VPORT
  5
29
330
8
100
AcDbSymbolTableRecord
100
AcDbViewportTableRecord
  2
*Active
 70
     0
 10
0.0
 20
0.0
 11
1.0
 21
1.0
 12
1050.0
 22
742.5
 13
0.0
 23
0.0
 14
10.0
 24
10.0
 15
10.0
 25
10.0
 16
0.0
 26
0.0
 36
1.0
 17
0.0
 27
0.0
 37
0.0
 40
1485.0
 41
1.4141414141
 42
50.0
 43
0.0
 44
0.0
 50
0.0
 51
0.0
 71
     0
 72
  2000
 73
     1
 74
     3
 75
     0
 76
     0
 77
     0
 78
     0
281
     0
 65
     1
110
0.0
120
0.0
130
0.0
111
1.0
121
0.0
131
0.0
112
0.0
122
1.0
132
0.0
 79
     0
146
0.0
  0
ENDTAB
  0
TABLE
  2
LTYPE
  5
5
330
0
100
AcDbSymbolTable
 70
     6
  0
LTYPE
  5
14
330
5
100
AcDbSymbolTableRecord
100
AcDbLinetypeTableRecord
  2
ByBlock
 70
     0
  3

 72
    65
 73
     0
 40
0.0
  0
LTYPE
  5
15
330
5
100
AcDbSymbolTableRecord
100
AcDbLinetypeTableRecord
  2
ByLayer
 70
     0
  3

 72
    65
 73
     0
 40
0.0
  0
LTYPE
  5
16
330
5
100
AcDbSymbolTableRecord
100
AcDbLinetypeTableRecord
  2
Continuous
 70
     0
  3
Solid line
 72
    65
 73
     0
 40
0.0
  0
LTYPE
  5
6E
330
5
100
AcDbSymbolTableRecord
100
AcDbLinetypeTableRecord
  2
HIDDEN
 70
     0
  3
Hidden __ __ __ __ __ __ __ __ __ __ __ __ __ __
 72
    65
 73
     2
 40
1.905
 49
1.27
 74
     0
 49
-0.635
 74
     0
  0
LTYPE
  5
6F
330
5
100
AcDbSymbolTableRecord
100
AcDbLinetypeTableRecord
  2
PHANTOM
 70
     0
  3
Phantom ______  __  __  ______  __  __  ______
 72
    65
 73
     6
 40
12.7
 49
6.35
 74
     0
 49
-1.27
 74
     0
 49
1.27
 74
     0
 49
-1.27
 74
     0
 49
1.27
 74
     0
 49
-1.27
 74
     0
  0
LTYPE
  5
70
330
5
100
AcDbSymbolTableRecord
100
AcDbLinetypeTableRecord
  2
CENTER
 70
     0
  3
Center ____ _ ____ _ ____ _ ____ _ ____ _ ____
 72
    65
 73
     4
 40
10.16
 49
6.35
 74
     0
 49
-1.27
 74
     0
 49
1.27
 74
     0
 49
-1.27
 74
     0
  0
LTYPE
  5
71
330
5
100
AcDbSymbolTableRecord
100
AcDbLinetypeTableRecord
  2
CENTERX2
 70
     0
  3
Center (2x) ________  __  ________  __  _____
 72
    65
 73
     4
 40
20.32
 49
12.7
 74
     0
 49
-2.54
 74
     0
 49
2.54
 74
     0
 49
-2.54
 74
     0
  0
LTYPE
  5
72
330
5
100
AcDbSymbolTableRecord
100
AcDbLinetypeTableRecord
  2
DOT2
 70
     0
  3
Dot (.5x) ........................................
 72
    65
 73
     2
 40
0.635
 49
0.0
 74
     0
 49
-0.635
 74
     0
  0
ENDTAB
  0
TABLE
  2
LAYER
  5
2
330
0
100
AcDbSymbolTable
 70
    10
  0
LAYER
  5
10
330
2
100
AcDbSymbolTableRecord
100
AcDbLayerTableRecord
  2
0
 70
     0
 62
     7
  6
Continuous
370
    -3
390
F
  0
LAYER
  5
73
330
2
100
AcDbSymbolTableRecord
100
AcDbLayerTableRecord
  2
DIMENSION
 70
     0
 62
     7
  6
Continuous
370
    -3
390
F
  0
LAYER
  5
74
330
2
100
AcDbSymbolTableRecord
100
AcDbLayerTableRecord
  2
NOTES
 70
     0
 62
     7
  6
Continuous
370
    -3
390
F
  0
LAYER
  5
75
330
2
100
AcDbSymbolTableRecord
100
AcDbLayerTableRecord
  2
TABLES
 70
     0
 62
     7
  6
Continuous
370
    -3
390
F
  0
LAYER
  5
76
330
2
100
AcDbSymbolTableRecord
100
AcDbLayerTableRecord
  2
INVISIBLE
 70
     0
 62
    -7
  6
Continuous
290
     0
370
    -3
390
F
  0
LAYER
  5
77
330
2
100
AcDbSymbolTableRecord
100
AcDbLayerTableRecord
  2
WEP
 70
     0
 62
  -150
  6
Continuous
290
     0
370
    -3
390
F
  0
LAYER
  5
78
330
2
100
AcDbSymbolTableRecord
100
AcDbLayerTableRecord
  2
EMP
 70
     0
 62
     1
  6
Continuous
370
    -3
390
F
  0
LAYER
  5
79
330
2
100
AcDbSymbolTableRecord
100
AcDbLayerTableRecord
  2
MARKETING_DRW
 70
     0
 62
    -7
  6
Continuous
290
     0
370
    -3
390
F
  0
LAYER
  5
7A
330
2
100
AcDbSymbolTableRecord
100
AcDbLayerTableRecord
  2
SINGLE_ARTICLE_DRW
 70
     0
 62
     7
  6
Continuous
370
    -3
390
F
  0
LAYER
  5
7B
330
2
100
AcDbSymbolTableRecord
100
AcDbLayerTableRecord
  2
TABLE_DRW
 70
     0
 62
    -7
  6
Continuous
290
     0
370
    -3
390
F
  0
ENDTAB
  0
TABLE
  2
STYLE
  5
3
330
0
100
AcDbSymbolTable
 70
     2
  0
STYLE
  5
11
330
3
100
AcDbSymbolTableRecord
100
AcDbTextStyleTableRecord
  2
Standard
 70
     0
 40
0.0
 41
1.0
 50
0.0
 71
     0
 42
12.5
  3
txt
  4

  0
STYLE
  5
B5
330
3
100
AcDbSymbolTableRecord
100
AcDbTextStyleTableRecord
  2
SLDTEXTSTYLE0
 70
     0
 40
0.0
 41
0.605
 50
0.0
 71
     0
 42
12.5
  3
TXT
  4

  0
ENDTAB
  0
TABLE
  2
VIEW
  5
6
330
0
100
AcDbSymbolTable
 70
     0
  0
ENDTAB
  0
TABLE
  2
UCS
  5
7
330
0
100
AcDbSymbolTable
 70
     0
  0
ENDTAB
  0
TABLE
  2
APPID
  5
9
330
0
100
AcDbSymbolTable
 70
     1
  0
APPID
  5
12
330
9
100
AcDbSymbolTableRecord
100
AcDbRegAppTableRecord
  2
ACAD
 70
     0
  0
ENDTAB
  0
TABLE
  2
DIMSTYLE
  5
A
330
0
100
AcDbSymbolTable
 70
     1
100
AcDbDimStyleTable
  0
DIMSTYLE
105
27
330
A
100
AcDbSymbolTableRecord
100
AcDbDimStyleTableRecord
  2
ISO-25
 70
     0
 41
2.5
 42
0.625
 43
3.75
 44
1.25
 73
     0
 74
     0
 77
     1
 78
     8
140
2.5
141
2.5
143
0.0393700787
147
0.625
171
     3
172
     1
178
     0
271
     2
272
     2
274
     3
278
    44
283
     0
284
     8
340
11
  0
ENDTAB
  0
TABLE
  2
BLOCK_RECORD
  5
1
330
0
100
AcDbSymbolTable
 70
     3
  0
BLOCK_RECORD
  5
1F
330
1
100
AcDbSymbolTableRecord
100
AcDbBlockTableRecord
  2
*Model_Space
340
22
  0
BLOCK_RECORD
  5
1B
330
1
100
AcDbSymbolTableRecord
100
AcDbBlockTableRecord
  2
*Paper_Space
340
1E
  0
BLOCK_RECORD
  5
23
330
1
100
AcDbSymbolTableRecord
100
AcDbBlockTableRecord
  2
*Paper_Space0
340
26
  0
BLOCK_RECORD
  5
BF
330
1
100
AcDbSymbolTableRecord
100
AcDbBlockTableRecord
  2
SW_NOTE_0
340
0
102
{BLKREFS
331
C5
102
}
  0
BLOCK_RECORD
  5
E8
330
1
100
AcDbSymbolTableRecord
100
AcDbBlockTableRecord
  2
SW_NOTE_0_1
340
0
102
{BLKREFS
331
EE
102
}
  0
ENDTAB
  0
ENDSEC
  0
SECTION
  2
BLOCKS
  0
BLOCK
  5
20
330
1F
100
AcDbEntity
  8
0
100
AcDbBlockBegin
  2
*Model_Space
 70
     0
 10
0.0
 20
0.0
 30
0.0
  3
*Model_Space
  1

  0
ENDBLK
  5
21
330
1F
100
AcDbEntity
  8
0
100
AcDbBlockEnd
  0
BLOCK
  5
1C
330
1B
100
AcDbEntity
 67
     1
  8
0
100
AcDbBlockBegin
  2
*Paper_Space
 70
     0
 10
0.0
 20
0.0
 30
0.0
  3
*Paper_Space
  1

  0
ENDBLK
  5
1D
330
1B
100
AcDbEntity
 67
     1
  8
0
100
AcDbBlockEnd
  0
BLOCK
  5
24
330
23
100
AcDbEntity
  8
0
100
AcDbBlockBegin
  2
*Paper_Space0
 70
     0
 10
0.0
 20
0.0
 30
0.0
  3
*Paper_Space0
  1

  0
ENDBLK
  5
25
330
23
100
AcDbEntity
  8
0
100
AcDbBlockEnd
  0
BLOCK
  5
C0
330
BF
100
AcDbEntity
  8
0
100
AcDbBlockBegin
  2
SW_NOTE_0
 70
     0
 10
0.0
 20
0.0
 30
0.0
  3
SW_NOTE_0
  1

  0
MTEXT
  5
C2
330
BF
100
AcDbEntity
  8
TABLE_DRW
 62
     0
100
AcDbMText
 10
0.0
 20
11.6016096579
 30
0.0
 40
9.0
 41
0.0
 71
     1
 72
     1
  1
The reproduction, distribution and utilization of this document as well as the communication of its contents to
  7
SLDTEXTSTYLE0
 73
     1
 44
1.0
  0
MTEXT
  5
C3
330
BF
100
AcDbEntity
  8
TABLE_DRW
 62
     0
100
AcDbMText
 10
0.0
 20
0.0016098055
 30
0.0
 40
9.0
 41
0.0
 71
     1
 72
     1
  1
others without express authorization is prohibited. Offenders will be held liable for the payment of damages.
  7
SLDTEXTSTYLE0
 73
     1
 44
1.0
  0
MTEXT
  5
C4
330
BF
100
AcDbEntity
  8
TABLE_DRW
 62
     0
100
AcDbMText
 10
0.0
 20
-11.598390047
 30
0.0
 40
9.0
 41
0.0
 71
     1
 72
     1
  1
All rights reserved in the event of the grant of a patent, utility model or design. Observe copyright by ISO 16016
  7
SLDTEXTSTYLE0
 73
     1
 44
1.0
  0
ENDBLK
  5
C1
330
BF
100
AcDbEntity
  8
0
100
AcDbBlockEnd
  0
BLOCK
  5
E9
330
E8
100
AcDbEntity
  8
0
100
AcDbBlockBegin
  2
SW_NOTE_0_1
 70
     0
 10
0.0
 20
0.0
 30
0.0
  3
SW_NOTE_0_1
  1

  0
MTEXT
  5
EB
330
E8
100
AcDbEntity
  8
MARKETING_DRW
 62
     0
100
AcDbMText
 10
0.0
 20
11.6016096579
 30
0.0
 40
9.0
 41
0.0
 71
     1
 72
     1
  1
The reproduction, distribution and utilization of this document as well as the communication of its contents to
  7
SLDTEXTSTYLE0
 73
     1
 44
1.0
  0
MTEXT
  5
EC
330
E8
100
AcDbEntity
  8
MARKETING_DRW
 62
     0
100
AcDbMText
 10
0.0
 20
-0.0233903849
 30
0.0
 40
9.0
 41
0.0
 71
     1
 72
     1
  1
others without express authorization is prohibited. Offenders will be held liable for the payment of damages.
  7
SLDTEXTSTYLE0
 73
     1
 44
1.0
  0
MTEXT
  5
ED
330
E8
100
AcDbEntity
  8
MARKETING_DRW
 62
     0
100
AcDbMText
 10
0.0
 20
-11.6483904277
 30
0.0
 40
9.0
 41
0.0
 71
     1
 72
     1
  1
All rights reserved in the event of the grant of a patent, utility model or design. Observe copyright by ISO 16016
  7
SLDTEXTSTYLE0
 73
     1
 44
1.0
  0
ENDBLK
  5
EA
330
E8
100
AcDbEntity
  8
0
100
AcDbBlockEnd
  0
ENDSEC
  0
SECTION
  2
ENTITIES
  0
LINE
  5
7C
330
1F
100
AcDbEntity
  8
TABLE_DRW
  6
CENTERX2
 62
     7
100
AcDbLine
 10
1955.0
 20
200.0
 30
0.0
 11
1980.0
 21
200.0
 31
0.0
  0
LINE
  5
7D
330
1F
100
AcDbEntity
  8
TABLE_DRW
  6
CENTERX2
 62
     7
100
AcDbLine
 10
1967.5
 20
212.5
 30
0.0
 11
1967.5
 21
187.5
 31
0.0
  0
LINE
  5
7E
330
1F
100
AcDbEntity
  8
TABLE_DRW
  6
CENTERX2
 62
     7
100
AcDbLine
 10
1915.0
 20
200.0
 30
0.0
 11
1950.0
 21
200.0
 31
0.0
  0
LINE
  5
7F
330
1F
100
AcDbEntity
  8
TABLE_DRW
 62
     7
100
AcDbLine
 10
1920.0
 20
194.95
 30
0.0
 11
1945.0
 21
190.0
 31
0.0
  0
LINE
  5
80
330
1F
100
AcDbEntity
  8
TABLE_DRW
 62
     7
100
AcDbLine
 10
1920.0
 20
205.05
 30
0.0
 11
1920.0
 21
194.95
 31
0.0
  0
LINE
  5
81
330
1F
100
AcDbEntity
  8
TABLE_DRW
 62
     7
100
AcDbLine
 10
1945.0
 20
210.0
 30
0.0
 11
1920.0
 21
205.05
 31
0.0
  0
LINE
  5
82
330
1F
100
AcDbEntity
  8
TABLE_DRW
 62
     7
100
AcDbLine
 10
1945.0
 20
190.0
 30
0.0
 11
1945.0
 21
210.0
 31
0.0
  0
LINE
  5
83
330
1F
100
AcDbEntity
  8
TABLE_DRW
 62
     7
100
AcDbLine
 10
2050.0
 20
50.0
 30
0.0
 11
2050.0
 21
340.0
 31
0.0
  0
LINE
  5
84
330
1F
100
AcDbEntity
  8
TABLE_DRW
 62
     7
100
AcDbLine
 10
1150.0
 20
340.0
 30
0.0
 11
1150.0
 21
50.0
 31
0.0
  0
LINE
  5
85
330
1F
100
AcDbEntity
  8
TABLE_DRW
 62
     7
100
AcDbLine
 10
1700.0
 20
95.0
 30
0.0
 11
1700.0
 21
50.0
 31
0.0
  0
LINE
  5
86
330
1F
100
AcDbEntity
  8
TABLE_DRW
 62
     7
100
AcDbLine
 10
1850.0
 20
50.0
 30
0.0
 11
1850.0
 21
95.0
 31
0.0
  0
LINE
  5
87
330
1F
100
AcDbEntity
  8
TABLE_DRW
 62
     7
100
AcDbLine
 10
2000.0
 20
95.0
 30
0.0
 11
2000.0
 21
50.0
 31
0.0
  0
LINE
  5
88
330
1F
100
AcDbEntity
  8
TABLE_DRW
 62
     7
100
AcDbLine
 10
1900.0
 20
320.0
 30
0.0
 11
1900.0
 21
185.0
 31
0.0
  0
LINE
  5
89
330
1F
100
AcDbEntity
  8
TABLE_DRW
 62
     7
100
AcDbLine
 10
2050.0
 20
320.0
 30
0.0
 11
1150.0
 21
320.0
 31
0.0
  0
LINE
  5
8A
330
1F
100
AcDbEntity
  8
TABLE_DRW
 62
     7
100
AcDbLine
 10
1800.0
 20
95.0
 30
0.0
 11
1800.0
 21
50.0
 31
0.0
  0
LINE
  5
8B
330
1F
100
AcDbEntity
  8
TABLE_DRW
 62
     7
100
AcDbLine
 10
2050.0
 20
275.0
 30
0.0
 11
1400.0
 21
275.0
 31
0.0
  0
LINE
  5
8C
330
1F
100
AcDbEntity
  8
TABLE_DRW
 62
     7
100
AcDbLine
 10
1650.0
 20
230.0
 30
0.0
 11
1650.0
 21
185.0
 31
0.0
  0
LINE
  5
8D
330
1F
100
AcDbEntity
  8
TABLE_DRW
 62
     7
100
AcDbLine
 10
2050.0
 20
230.0
 30
0.0
 11
1400.0
 21
230.0
 31
0.0
  0
LINE
  5
8E
330
1F
100
AcDbEntity
  8
TABLE_DRW
 62
     7
100
AcDbLine
 10
1400.0
 20
320.0
 30
0.0
 11
1400.0
 21
185.0
 31
0.0
  0
LINE
  5
8F
330
1F
100
AcDbEntity
  8
TABLE_DRW
 62
     7
100
AcDbLine
 10
2000.0
 20
230.0
 30
0.0
 11
2000.0
 21
185.0
 31
0.0
  0
LINE
  5
90
330
1F
100
AcDbEntity
  8
TABLE_DRW
 62
     7
100
AcDbLine
 10
2050.0
 20
95.0
 30
0.0
 11
1150.0
 21
95.0
 31
0.0
  0
LINE
  5
91
330
1F
100
AcDbEntity
  8
TABLE_DRW
 62
     7
100
AcDbLine
 10
1650.0
 20
275.0
 30
0.0
 11
1650.0
 21
320.0
 31
0.0
  0
LINE
  5
92
330
1F
100
AcDbEntity
  8
TABLE_DRW
 62
     7
100
AcDbLine
 10
1150.0
 20
340.0
 30
0.0
 11
2050.0
 21
340.0
 31
0.0
  0
LINE
  5
93
330
1F
100
AcDbEntity
  8
TABLE_DRW
 62
     7
100
AcDbLine
 10
1150.0
 20
185.0
 30
0.0
 11
2050.0
 21
185.0
 31
0.0
  0
LINE
  5
94
330
1F
100
AcDbEntity
  8
TABLE_DRW
 62
     7
100
AcDbLine
 10
1150.0
 20
50.0
 30
0.0
 11
2050.0
 21
50.0
 31
0.0
  0
LINE
  5
95
330
1F
100
AcDbEntity
  8
TABLE_DRW
 62
     7
100
AcDbLine
 10
1400.0
 20
275.0
 30
0.0
 11
1150.0
 21
275.0
 31
0.0
  0
LINE
  5
96
330
1F
100
AcDbEntity
  8
MARKETING_DRW
  6
CENTERX2
100
AcDbLine
 10
1955.0
 20
200.0
 30
0.0
 11
1980.0
 21
200.0
 31
0.0
  0
LINE
  5
97
330
1F
100
AcDbEntity
  8
MARKETING_DRW
  6
CENTERX2
100
AcDbLine
 10
1967.5
 20
212.5
 30
0.0
 11
1967.5
 21
187.5
 31
0.0
  0
LINE
  5
98
330
1F
100
AcDbEntity
  8
MARKETING_DRW
  6
CENTERX2
100
AcDbLine
 10
1915.0
 20
200.0
 30
0.0
 11
1950.0
 21
200.0
 31
0.0
  0
LINE
  5
99
330
1F
100
AcDbEntity
  8
MARKETING_DRW
100
AcDbLine
 10
1920.0
 20
194.95
 30
0.0
 11
1945.0
 21
190.0
 31
0.0
  0
LINE
  5
9A
330
1F
100
AcDbEntity
  8
MARKETING_DRW
100
AcDbLine
 10
1920.0
 20
205.05
 30
0.0
 11
1920.0
 21
194.95
 31
0.0
  0
LINE
  5
9B
330
1F
100
AcDbEntity
  8
MARKETING_DRW
100
AcDbLine
 10
1945.0
 20
210.0
 30
0.0
 11
1920.0
 21
205.05
 31
0.0
  0
LINE
  5
9C
330
1F
100
AcDbEntity
  8
MARKETING_DRW
100
AcDbLine
 10
1945.0
 20
190.0
 30
0.0
 11
1945.0
 21
210.0
 31
0.0
  0
LINE
  5
9D
330
1F
100
AcDbEntity
  8
MARKETING_DRW
100
AcDbLine
 10
2050.0
 20
50.0
 30
0.0
 11
2050.0
 21
230.0
 31
0.0
  0
LINE
  5
9E
330
1F
100
AcDbEntity
  8
MARKETING_DRW
100
AcDbLine
 10
1150.0
 20
50.0
 30
0.0
 11
2050.0
 21
50.0
 31
0.0
  0
LINE
  5
9F
330
1F
100
AcDbEntity
  8
MARKETING_DRW
100
AcDbLine
 10
1150.0
 20
275.0
 30
0.0
 11
1150.0
 21
50.0
 31
0.0
  0
LINE
  5
A0
330
1F
100
AcDbEntity
  8
MARKETING_DRW
100
AcDbLine
 10
1150.0
 20
275.0
 30
0.0
 11
1650.0
 21
275.0
 31
0.0
  0
LINE
  5
A1
330
1F
100
AcDbEntity
  8
MARKETING_DRW
 62
     7
100
AcDbLine
 10
1850.0
 20
50.0
 30
0.0
 11
1850.0
 21
95.0
 31
0.0
  0
LINE
  5
A2
330
1F
100
AcDbEntity
  8
MARKETING_DRW
100
AcDbLine
 10
2000.0
 20
95.0
 30
0.0
 11
2000.0
 21
50.0
 31
0.0
  0
LINE
  5
A3
330
1F
100
AcDbEntity
  8
MARKETING_DRW
100
AcDbLine
 10
1650.0
 20
275.0
 30
0.0
 11
1650.0
 21
230.0
 31
0.0
  0
LINE
  5
A4
330
1F
100
AcDbEntity
  8
MARKETING_DRW
100
AcDbLine
 10
2050.0
 20
230.0
 30
0.0
 11
1400.0
 21
230.0
 31
0.0
  0
LINE
  5
A5
330
1F
100
AcDbEntity
  8
MARKETING_DRW
100
AcDbLine
 10
1400.0
 20
275.0
 30
0.0
 11
1400.0
 21
185.0
 31
0.0
  0
LINE
  5
A6
330
1F
100
AcDbEntity
  8
MARKETING_DRW
100
AcDbLine
 10
2000.0
 20
230.0
 30
0.0
 11
2000.0
 21
185.0
 31
0.0
  0
LINE
  5
A7
330
1F
100
AcDbEntity
  8
MARKETING_DRW
100
AcDbLine
 10
2050.0
 20
95.0
 30
0.0
 11
1150.0
 21
95.0
 31
0.0
  0
LINE
  5
A8
330
1F
100
AcDbEntity
  8
MARKETING_DRW
100
AcDbLine
 10
1150.0
 20
185.0
 30
0.0
 11
2050.0
 21
185.0
 31
0.0
  0
LINE
  5
A9
330
1F
100
AcDbEntity
  8
MARKETING_DRW
100
AcDbLine
 10
1150.0
 20
50.0
 30
0.0
 11
2050.0
 21
50.0
 31
0.0
  0
LINE
  5
AA
330
1F
100
AcDbEntity
  8
MARKETING_DRW
100
AcDbLine
 10
1900.0
 20
230.0
 30
0.0
 11
1900.0
 21
185.0
 31
0.0
  0
LINE
  5
AB
330
1F
100
AcDbEntity
  8
MARKETING_DRW
100
AcDbLine
 10
1650.0
 20
275.0
 30
0.0
 11
1900.0
 21
275.0
 31
0.0
  0
LINE
  5
AC
330
1F
100
AcDbEntity
  8
MARKETING_DRW
100
AcDbLine
 10
1900.0
 20
275.0
 30
0.0
 11
1900.0
 21
230.0
 31
0.0
  0
LINE
  5
AD
330
1F
100
AcDbEntity
  8
MARKETING_DRW
100
AcDbLine
 10
1900.0
 20
275.0
 30
0.0
 11
2050.0
 21
275.0
 31
0.0
  0
LINE
  5
AE
330
1F
100
AcDbEntity
  8
MARKETING_DRW
100
AcDbLine
 10
2050.0
 20
275.0
 30
0.0
 11
2050.0
 21
230.0
 31
0.0
  0
LINE
  5
AF
330
1F
100
AcDbEntity
  8
MARKETING_DRW
100
AcDbLine
 10
1825.0
 20
275.0
 30
0.0
 11
1825.0
 21
230.0
 31
0.0
  0
LINE
  5
B0
330
1F
100
AcDbEntity
  8
MARKETING_DRW
100
AcDbLine
 10
1650.0
 20
230.0
 30
0.0
 11
1650.0
 21
185.0
 31
0.0
  0
CIRCLE
  5
B1
330
1F
100
AcDbEntity
  8
TABLE_DRW
 62
     7
100
AcDbCircle
 10
1967.5
 20
200.0
 30
0.0
 40
5.000000000000224
  0
CIRCLE
  5
B2
330
1F
100
AcDbEntity
  8
TABLE_DRW
 62
     7
100
AcDbCircle
 10
1967.5
 20
200.0
 30
0.0
 40
10.00000000000024
  0
CIRCLE
  5
B3
330
1F
100
AcDbEntity
  8
MARKETING_DRW
100
AcDbCircle
 10
1967.5
 20
200.0
 30
0.0
 40
5.000000000000224
  0
CIRCLE
  5
B4
330
1F
100
AcDbEntity
  8
MARKETING_DRW
100
AcDbCircle
 10
1967.5
 20
200.0
 30
0.0
 40
10.00000000000024
  0
MTEXT
  5
B6
330
1F
100
AcDbEntity
  8
TABLE_DRW
100
AcDbMText
 10
1905.0
 20
294.9675136777
 30
0.0
 40
12.5
 41
0.0
 71
     1
 72
     1
  1
see table
  7
SLDTEXTSTYLE0
 73
     1
 44
1.0
  0
MTEXT
  5
B7
330
1F
100
AcDbEntity
  8
TABLE_DRW
100
AcDbMText
 10
1155.0
 20
334.9766099061
 30
0.0
 40
9.0
 41
0.0
 71
     1
 72
     1
  1
modification:
  7
SLDTEXTSTYLE0
 73
     1
 44
1.0
  0
MTEXT
  5
B8
330
1F
100
AcDbEntity
  8
TABLE_DRW
100
AcDbMText
 10
1405.0
 20
249.9675136777
 30
0.0
 40
12.5
 41
0.0
 71
     1
 72
     1
  1
see table
  7
SLDTEXTSTYLE0
 73
     1
 44
1.0
  0
MTEXT
  5
B9
330
1F
100
AcDbEntity
  8
TABLE_DRW
100
AcDbMText
 10
1155.0
 20
159.9675136777
 30
0.0
 40
12.5
 41
0.0
 71
     1
 72
     1
  1
ACO ShowerDrain
  7
SLDTEXTSTYLE0
 73
     1
 44
1.0
  0
MTEXT
  5
BA
330
1F
100
AcDbEntity
  8
TABLE_DRW
100
AcDbMText
 10
1824.7395830229
 20
69.9675136777
 30
0.0
 40
12.5
 41
0.0
 71
     2
 72
     1
  1
001
  7
SLDTEXTSTYLE0
 73
     1
 44
1.0
  0
MTEXT
  5
BB
330
1F
100
AcDbEntity
  8
TABLE_DRW
100
AcDbMText
 10
1749.0407964215
 20
69.9675136777
 30
0.0
 40
12.5
 41
0.0
 71
     2
 72
     1
  1
1076930-O
  7
SLDTEXTSTYLE0
 73
     1
 44
1.0
  0
MTEXT
  5
BC
330
1F
100
AcDbEntity
  8
TABLE_DRW
100
AcDbMText
 10
1155.0
 20
295.0022357116
 30
0.0
 40
12.5
 41
0.0
 71
     1
 72
     1
  1
Tittmar, Alexander
  7
SLDTEXTSTYLE0
 73
     1
 44
1.0
  0
MTEXT
  5
BD
330
1F
100
AcDbEntity
  8
TABLE_DRW
100
AcDbMText
 10
1155.0
 20
137.4675136777
 30
0.0
 40
12.5
 41
0.0
 71
     1
 72
     1
  1
ASM Shower Channel C with WA and gap, with side outlet, with FAT GV50 L580, International
  7
SLDTEXTSTYLE0
 73
     1
 44
1.0
  0
MTEXT
  5
BE
330
1F
100
AcDbEntity
  8
TABLE_DRW
100
AcDbMText
 10
1155.0
 20
114.9675136777
 30
0.0
 40
12.5
 41
0.0
 71
     1
 72
     1
  1
ZB Duschrinne C mit Spalt, mit Wandaufkantung, mit Seite Auslass, mit FAT GV50 L580, International
  7
SLDTEXTSTYLE0
 73
     1
 44
1.0
  0
INSERT
  5
C5
330
1F
100
AcDbEntity
  8
TABLE_DRW
100
AcDbBlockReference
  2
SW_NOTE_0
 10
1155.0
 20
78.4000001475
 30
0.0
  0
MTEXT
  5
C6
330
1F
100
AcDbEntity
  8
TABLE_DRW
100
AcDbMText
 10
1405.0
 20
224.9766099061
 30
0.0
 40
9.0
 41
0.0
 71
     1
 72
     1
  1
created by:
  7
SLDTEXTSTYLE0
 73
     1
 44
1.0
  0
MTEXT
  5
C7
330
1F
100
AcDbEntity
  8
TABLE_DRW
100
AcDbMText
 10
1655.0
 20
314.9766099061
 30
0.0
 40
9.0
 41
0.0
 71
     1
 72
     1
  1
surface:
  7
SLDTEXTSTYLE0
 73
     1
 44
1.0
  0
MTEXT
  5
C8
330
1F
100
AcDbEntity
  8
TABLE_DRW
100
AcDbMText
 10
2024.8750000875
 20
224.9766099061
 30
0.0
 40
9.0
 41
0.0
 71
     2
 72
     1
  1
scale:
  7
SLDTEXTSTYLE0
 73
     1
 44
1.0
  0
MTEXT
  5
C9
330
1F
100
AcDbEntity
  8
TABLE_DRW
100
AcDbMText
 10
1905.0
 20
314.9766099061
 30
0.0
 40
9.0
 41
0.0
 71
     1
 72
     1
  1
weight:
  7
SLDTEXTSTYLE0
 73
     1
 44
1.0
  0
MTEXT
  5
CA
330
1F
100
AcDbEntity
  8
TABLE_DRW
100
AcDbMText
 10
1749.034373872
 20
89.9766099061
 30
0.0
 40
9.0
 41
0.0
 71
     2
 72
     1
  1
drawing-no.:
  7
SLDTEXTSTYLE0
 73
     1
 44
1.0
  0
MTEXT
  5
CB
330
1F
100
AcDbEntity
  8
TABLE_DRW
100
AcDbMText
 10
1905.0
 20
269.9766099061
 30
0.0
 40
9.0
 41
0.0
 71
     1
 72
     1
  1
documenttype:
  7
SLDTEXTSTYLE0
 73
     1
 44
1.0
  0
MTEXT
  5
CC
330
1F
100
AcDbEntity
  8
TABLE_DRW
100
AcDbMText
 10
1824.8125000894
 20
89.9766099061
 30
0.0
 40
9.0
 41
0.0
 71
     2
 72
     1
  1
index:
  7
SLDTEXTSTYLE0
 73
     1
 44
1.0
  0
MTEXT
  5
CD
330
1F
100
AcDbEntity
  8
TABLE_DRW
100
AcDbMText
 10
1655.0
 20
224.9766099061
 30
0.0
 40
9.0
 41
0.0
 71
     1
 72
     1
  1
reviewed by:
  7
SLDTEXTSTYLE0
 73
     1
 44
1.0
  0
MTEXT
  5
CE
330
1F
100
AcDbEntity
  8
TABLE_DRW
100
AcDbMText
 10
1855.0
 20
89.9766099061
 30
0.0
 40
9.0
 41
0.0
 71
     1
 72
     1
  1
release date:
  7
SLDTEXTSTYLE0
 73
     1
 44
1.0
  0
MTEXT
  5
CF
330
1F
100
AcDbEntity
  8
TABLE_DRW
100
AcDbMText
 10
2024.7500000913
 20
89.9766099061
 30
0.0
 40
9.0
 41
0.0
 71
     2
 72
     1
  1
sheet:
  7
SLDTEXTSTYLE0
 73
     1
 44
1.0
  0
MTEXT
  5
D0
330
1F
100
AcDbEntity
  8
TABLE_DRW
100
AcDbMText
 10
1905.0
 20
224.9766099061
 30
0.0
 40
9.0
 41
0.0
 71
     1
 72
     1
  1
projection:ISO-E
  7
SLDTEXTSTYLE0
 73
     1
 44
1.0
  0
MTEXT
  5
D1
330
1F
100
AcDbEntity
  8
TABLE_DRW
100
AcDbMText
 10
1405.0
 20
269.9766099061
 30
0.0
 40
9.0
 41
0.0
 71
     1
 72
     1
  1
material:
  7
SLDTEXTSTYLE0
 73
     1
 44
1.0
  0
MTEXT
  5
D2
330
1F
100
AcDbEntity
  8
TABLE_DRW
100
AcDbMText
 10
1905.0
 20
249.9675136777
 30
0.0
 40
12.5
 41
0.0
 71
     1
 72
     1
  1
production drw.
  7
SLDTEXTSTYLE0
 73
     1
 44
1.0
  0
MTEXT
  5
D3
330
1F
100
AcDbEntity
  8
TABLE_DRW
100
AcDbMText
 10
1405.0
 20
314.9766099061
 30
0.0
 40
9.0
 41
0.0
 71
     1
 72
     1
  1
general tolerance:
  7
SLDTEXTSTYLE0
 73
     1
 44
1.0
  0
MTEXT
  5
D4
330
1F
100
AcDbEntity
  8
TABLE_DRW
100
AcDbMText
 10
2024.7829862405
 20
204.9675136777
 30
0.0
 40
12.5
 41
0.0
 71
     2
 72
     1
  1
1:5
  7
SLDTEXTSTYLE0
 73
     1
 44
1.0
  0
MTEXT
  5
D5
330
1F
100
AcDbEntity
  8
TABLE_DRW
100
AcDbMText
 10
2024.7829862405
 20
69.9675136777
 30
0.0
 40
12.5
 41
0.0
 71
     2
 72
     1
  1
1/1
  7
SLDTEXTSTYLE0
 73
     1
 44
1.0
  0
MTEXT
  5
D6
330
1F
100
AcDbEntity
  8
TABLE_DRW
100
AcDbMText
 10
1155.0
 20
314.9766099061
 30
0.0
 40
9.0
 41
0.0
 71
     1
 72
     1
  1
technical reference:
  7
SLDTEXTSTYLE0
 73
     1
 44
1.0
  0
MTEXT
  5
D7
330
1F
100
AcDbEntity
  8
TABLE_DRW
100
AcDbMText
 10
1155.0
 20
179.9766099061
 30
0.0
 40
9.0
 41
0.0
 71
     1
 72
     1
  1
title:
  7
SLDTEXTSTYLE0
 73
     1
 44
1.0
  0
MTEXT
  5
D8
330
1F
100
AcDbEntity
  8
MARKETING_DRW
100
AcDbMText
 10
1155.0
 20
114.9675136777
 30
0.0
 40
12.5
 41
0.0
 71
     1
 72
     1
  1
ZB Duschrinne C mit Spalt, mit Wandaufkantung, mit Seite Auslass, mit FAT GV50 L580, International
  7
SLDTEXTSTYLE0
 73
     1
 44
1.0
  0
MTEXT
  5
D9
330
1F
100
AcDbEntity
  8
MARKETING_DRW
100
AcDbMText
 10
1155.0
 20
137.4675136777
 30
0.0
 40
12.5
 41
0.0
 71
     1
 72
     1
  1
ASM Shower Channel C with WA and gap, with side outlet, with FAT GV50 L580, International
  7
SLDTEXTSTYLE0
 73
     1
 44
1.0
  0
MTEXT
  5
DA
330
1F
100
AcDbEntity
  8
MARKETING_DRW
100
AcDbMText
 10
1736.5407964215
 20
249.9675136777
 30
0.0
 40
12.5
 41
0.0
 71
     2
 72
     1
  1
1076930-O
  7
SLDTEXTSTYLE0
 73
     1
 44
1.0
  0
MTEXT
  5
DB
330
1F
100
AcDbEntity
  8
MARKETING_DRW
100
AcDbMText
 10
1862.2395830229
 20
252.0971433073
 30
0.0
 40
12.5
 41
0.0
 71
     2
 72
     1
  1
001
  7
SLDTEXTSTYLE0
 73
     1
 44
1.0
  0
MTEXT
  5
DC
330
1F
100
AcDbEntity
  8
MARKETING_DRW
100
AcDbMText
 10
1155.0
 20
159.9675136777
 30
0.0
 40
12.5
 41
0.0
 71
     1
 72
     1
  1
ACO ShowerDrain
  7
SLDTEXTSTYLE0
 73
     1
 44
1.0
  0
MTEXT
  5
DD
330
1F
100
AcDbEntity
  8
MARKETING_DRW
100
AcDbMText
 10
1905.0
 20
269.9766099061
 30
0.0
 40
9.0
 41
0.0
 71
     1
 72
     1
  1
documenttype:
  7
SLDTEXTSTYLE0
 73
     1
 44
1.0
  0
MTEXT
  5
DE
330
1F
100
AcDbEntity
  8
MARKETING_DRW
100
AcDbMText
 10
1655.0
 20
224.9766099061
 30
0.0
 40
9.0
 41
0.0
 71
     1
 72
     1
  1
reviewed by:
  7
SLDTEXTSTYLE0
 73
     1
 44
1.0
  0
MTEXT
  5
DF
330
1F
100
AcDbEntity
  8
MARKETING_DRW
100
AcDbMText
 10
1736.534373872
 20
270.0578764559
 30
0.0
 40
9.0
 41
0.0
 71
     2
 72
     1
  1
drawing-no.:
  7
SLDTEXTSTYLE0
 73
     1
 44
1.0
  0
MTEXT
  5
E0
330
1F
100
AcDbEntity
  8
MARKETING_DRW
100
AcDbMText
 10
1905.0
 20
224.9766099061
 30
0.0
 40
9.0
 41
0.0
 71
     1
 72
     1
  1
projection:ISO-E
  7
SLDTEXTSTYLE0
 73
     1
 44
1.0
  0
MTEXT
  5
E1
330
1F
100
AcDbEntity
  8
MARKETING_DRW
100
AcDbMText
 10
2024.7500000913
 20
89.9766099061
 30
0.0
 40
9.0
 41
0.0
 71
     2
 72
     1
  1
sheet:
  7
SLDTEXTSTYLE0
 73
     1
 44
1.0
  0
MTEXT
  5
E2
330
1F
100
AcDbEntity
  8
MARKETING_DRW
100
AcDbMText
 10
2024.7829862405
 20
69.9675136777
 30
0.0
 40
12.5
 41
0.0
 71
     2
 72
     1
  1
1/1
  7
SLDTEXTSTYLE0
 73
     1
 44
1.0
  0
MTEXT
  5
E3
330
1F
100
AcDbEntity
  8
MARKETING_DRW
100
AcDbMText
 10
1855.0
 20
89.9766099061
 30
0.0
 40
9.0
 41
0.0
 71
     1
 72
     1
  1
release date:
  7
SLDTEXTSTYLE0
 73
     1
 44
1.0
  0
MTEXT
  5
E4
330
1F
100
AcDbEntity
  8
MARKETING_DRW
100
AcDbMText
 10
1862.3125000894
 20
269.9766099061
 30
0.0
 40
9.0
 41
0.0
 71
     2
 72
     1
  1
index:
  7
SLDTEXTSTYLE0
 73
     1
 44
1.0
  0
MTEXT
  5
E5
330
1F
100
AcDbEntity
  8
MARKETING_DRW
100
AcDbMText
 10
1155.0
 20
179.9766099061
 30
0.0
 40
9.0
 41
0.0
 71
     1
 72
     1
  1
title:
  7
SLDTEXTSTYLE0
 73
     1
 44
1.0
  0
MTEXT
  5
E6
330
1F
100
AcDbEntity
  8
MARKETING_DRW
100
AcDbMText
 10
2024.8750000875
 20
224.9766099061
 30
0.0
 40
9.0
 41
0.0
 71
     2
 72
     1
  1
scale:
  7
SLDTEXTSTYLE0
 73
     1
 44
1.0
  0
MTEXT
  5
E7
330
1F
100
AcDbEntity
  8
MARKETING_DRW
100
AcDbMText
 10
2024.7829862405
 20
204.9675136777
 30
0.0
 40
12.5
 41
0.0
 71
     2
 72
     1
  1
1:5
  7
SLDTEXTSTYLE0
 73
     1
 44
1.0
  0
INSERT
  5
EE
330
1F
100
AcDbEntity
  8
MARKETING_DRW
100
AcDbBlockReference
  2
SW_NOTE_0_1
 10
1155.0
 20
78.3750002482
 30
0.0
  0
MTEXT
  5
EF
330
1F
100
AcDbEntity
  8
MARKETING_DRW
100
AcDbMText
 10
1905.0
 20
249.9675136777
 30
0.0
 40
12.5
 41
0.0
 71
     1
 72
     1
  1
marketing drw.
  7
SLDTEXTSTYLE0
 73
     1
 44
1.0
  0
MTEXT
  5
F0
330
1F
100
AcDbEntity
  8
MARKETING_DRW
100
AcDbMText
 10
1405.0
 20
224.9766099061
 30
0.0
 40
9.0
 41
0.0
 71
     1
 72
     1
  1
created by:
  7
SLDTEXTSTYLE0
 73
     1
 44
1.0
  0
LINE
  5
F1
330
1F
100
AcDbEntity
  8
0
  6
Continuous
 62
     7
370
    35
100
AcDbLine
 10
1140.6107245225
 20
933.9846816169
 30
0.0
 11
560.6107245225
 21
933.9846816169
 31
0.0
  0
LINE
  5
F2
330
1F
100
AcDbEntity
  8
0
  6
Continuous
 62
     7
370
    35
100
AcDbLine
 10
769.6107245225
 20
913.893125855
 30
0.0
 11
769.6107245225
 21
910.9850816169
 31
0.0
  0
LINE
  5
F3
330
1F
100
AcDbEntity
  8
0
  6
Continuous
 62
     7
370
    35
100
AcDbLine
 10
931.6107245225
 20
910.9850816169
 30
0.0
 11
931.6107245225
 21
913.893125855
 31
0.0
  0
ARC
  5
F4
330
1F
100
AcDbEntity
  8
0
  6
Continuous
 62
     7
370
    35
100
AcDbCircle
 10
767.6107245225
 20
913.8866925372
 30
0.0
 40
2.00000000000007
100
AcDbArc
 50
0.1603835477
 51
88.7916387136
  0
ARC
  5
F5
330
1F
100
AcDbEntity
  8
0
  6
Continuous
 62
     7
370
    35
100
AcDbCircle
 10
933.6107245225
 20
913.8866925372
 30
0.0
 40
1.999999999999986
100
AcDbArc
 50
91.1928878275
 51
179.8251412338
  0
LINE
  5
F6
330
1F
100
AcDbEntity
  8
0
  6
Continuous
 62
     7
370
    35
100
AcDbLine
 10
560.6107245225
 20
915.8862925372
 30
0.0
 11
767.6515453343
 21
915.8862925372
 31
0.0
  0
LINE
  5
F7
330
1F
100
AcDbEntity
  8
0
  6
Continuous
 62
     7
370
    35
100
AcDbLine
 10
933.5699037104
 20
915.8862925372
 30
0.0
 11
1140.6107245225
 21
915.8862925372
 31
0.0
  0
LINE
  5
F8
330
1F
100
AcDbEntity
  8
0
  6
Continuous
 62
     7
370
    35
100
AcDbLine
 10
942.1107245225
 20
840.4850816169
 30
0.0
 11
985.2991228681
 21
840.4850816169
 31
0.0
  0
LINE
  5
F9
330
1F
100
AcDbEntity
  8
0
  6
Continuous
 62
     7
370
    35
100
AcDbLine
 10
985.2991228681
 20
890.5850816169
 30
0.0
 11
942.1107245225
 21
890.5850816169
 31
0.0
  0
ARC
  5
FA
330
1F
100
AcDbEntity
  8
0
  6
Continuous
 62
     7
370
    35
100
AcDbCircle
 10
985.2991228681
 20
887.5850816169
 30
0.0
 40
3.000000000000114
100
AcDbArc
 50
78.1402208791
 51
90.0
  0
ARC
  5
FB
330
1F
100
AcDbEntity
  8
0
  6
Continuous
 62
     7
370
    35
100
AcDbCircle
 10
985.2991228681
 20
843.4850816169
 30
0.0
 40
3.000000000000073
100
AcDbArc
 50
270.0
 51
281.8597791209
  0
LINE
  5
FC
330
1F
100
AcDbEntity
  8
0
  6
Continuous
 62
     7
370
    35
100
AcDbLine
 10
985.915674571
 20
840.5491211271
 30
0.0
 11
990.6107245225
 21
841.5350816169
 31
0.0
  0
LINE
  5
FD
330
1F
100
AcDbEntity
  8
0
  6
Continuous
 62
     7
370
    35
100
AcDbLine
 10
990.6107245225
 20
889.5350816169
 30
0.0
 11
985.915674571
 21
890.5210421067
 31
0.0
  0
LINE
  5
FE
330
1F
100
AcDbEntity
  8
0
  6
Continuous
 62
     7
370
    35
100
AcDbLine
 10
942.1107245634
 20
890.5350816169
 30
0.0
 11
940.508558949
 21
890.5350816169
 31
0.0
  0
LINE
  5
FF
330
1F
100
AcDbEntity
  8
0
  6
Continuous
 62
     7
370
    35
100
AcDbLine
 10
923.6107245224
 20
840.5350816169
 30
0.0
 11
942.1107245634
 21
840.5350816169
 31
0.0
  0
LINE
  5
100
330
1F
100
AcDbEntity
  8
0
  6
Continuous
 62
     7
370
    35
100
AcDbLine
 10
919.6575069295
 20
840.5350816169
 30
0.0
 11
923.6107245225
 21
840.5350816169
 31
0.0
  0
LINE
  5
101
330
1F
100
AcDbEntity
  8
0
  6
Continuous
 62
     7
370
    35
100
AcDbLine
 10
1140.6107245225
 20
921.9846816169
 30
0.0
 11
560.6107245225
 21
921.9846816169
 31
0.0
  0
LINE
  5
102
330
1F
100
AcDbEntity
  8
0
  6
Continuous
 62
     7
370
    35
100
AcDbLine
 10
1140.6107245225
 20
920.9846816169
 30
0.0
 11
1140.6107245225
 21
921.9846816169
 31
0.0
  0
LINE
  5
103
330
1F
100
AcDbEntity
  8
0
  6
Continuous
 62
     7
370
    35
100
AcDbLine
 10
1140.6107245225
 20
920.9846816169
 30
0.0
 11
560.6107245225
 21
920.9846816169
 31
0.0
  0
LINE
  5
104
330
1F
100
AcDbEntity
  8
0
  6
Continuous
 62
     7
370
    35
100
AcDbLine
 10
560.6107245225
 20
920.9846816169
 30
0.0
 11
560.6107245225
 21
921.9846816169
 31
0.0
  0
LINE
  5
105
330
1F
100
AcDbEntity
  8
0
  6
Continuous
 62
     7
370
    35
100
AcDbLine
 10
1140.6107245225
 20
921.9846816169
 30
0.0
 11
1140.6107245225
 21
922.9846816169
 31
0.0
  0
LINE
  5
106
330
1F
100
AcDbEntity
  8
0
  6
Continuous
 62
     7
370
    35
100
AcDbLine
 10
560.6107245225
 20
922.9846816169
 30
0.0
 11
560.6107245225
 21
921.9846816169
 31
0.0
  0
LINE
  5
107
330
1F
100
AcDbEntity
  8
0
  6
Continuous
 62
     7
370
    35
100
AcDbLine
 10
1140.6107245225
 20
932.4846816169
 30
0.0
 11
1140.6107245225
 21
922.9846816169
 31
0.0
  0
LINE
  5
108
330
1F
100
AcDbEntity
  8
0
  6
Continuous
 62
     7
370
    35
100
AcDbLine
 10
560.6107245225
 20
922.9846816169
 30
0.0
 11
560.6107245225
 21
932.4846816169
 31
0.0
  0
LINE
  5
109
330
1F
100
AcDbEntity
  8
0
  6
Continuous
 62
     7
370
    35
100
AcDbLine
 10
560.6107245225
 20
932.9846816169
 30
0.0
 11
560.6107245225
 21
933.9846816169
 31
0.0
  0
LINE
  5
10A
330
1F
100
AcDbEntity
  8
0
  6
Continuous
 62
     7
370
    35
100
AcDbLine
 10
1140.6107245225
 20
933.9846816169
 30
0.0
 11
1140.6107245225
 21
932.9846816169
 31
0.0
  0
LINE
  5
10B
330
1F
100
AcDbEntity
  8
0
  6
Continuous
 62
     7
370
    35
100
AcDbLine
 10
560.6107245225
 20
918.8866658985
 30
0.0
 11
560.6107245225
 21
919.6466001062
 31
0.0
  0
LINE
  5
10C
330
1F
100
AcDbEntity
  8
0
  6
Continuous
 62
     7
370
    35
100
AcDbLine
 10
1140.6107245225
 20
918.8866658985
 30
0.0
 11
1140.6107245225
 21
919.6466001062
 31
0.0
  0
LINE
  5
10D
330
1F
100
AcDbEntity
  8
0
  6
Continuous
 62
     7
370
    35
100
AcDbLine
 10
560.6107245225
 20
919.6466001062
 30
0.0
 11
560.6107245225
 21
920.9846816169
 31
0.0
  0
LINE
  5
10E
330
1F
100
AcDbEntity
  8
0
  6
Continuous
 62
     7
370
    35
100
AcDbLine
 10
1140.6107245225
 20
919.6466001062
 30
0.0
 11
1140.6107245225
 21
920.9846816169
 31
0.0
  0
SPLINE
  5
10F
330
1F
100
AcDbEntity
  8
0
  6
Continuous
 62
     7
370
    35
100
AcDbSpline
210
0.0
220
0.0
230
1.0
 70
     8
 71
     3
 72
    14
 73
    10
 74
     0
 42
0.000000001
 43
0.00000001
 40
0.0
 40
0.0
 40
0.0
 40
0.0
 40
0.2499999999999999
 40
0.2499999999999999
 40
0.4999999999999999
 40
0.4999999999999999
 40
0.7499999999999999
 40
0.7499999999999999
 40
1.0
 40
1.0
 40
1.0
 40
1.0
 10
933.5699006311411
 20
915.8895091961086
 30
0.0
 10
933.5446765355915
 20
916.0787565222579
 30
0.0
 10
932.9585000552069
 20
916.267676136266
 30
0.0
 10
930.7271087171628
 20
916.624413185393
 30
0.0
 10
929.0828511342747
 20
916.7920685235907
 30
0.0
 10
924.9143225496142
 20
917.0877254115665
 30
0.0
 10
922.3918216722311
 20
917.2155945938612
 30
0.0
 10
916.7438593029437
 20
917.4174206584349
 30
0.0
 10
913.6208681473724
 20
917.491286577801
 30
0.0
 10
910.3689584038314
 20
917.534042626204
 30
0.0
  0
SPLINE
  5
110
330
1F
100
AcDbEntity
  8
0
  6
Continuous
 62
     7
370
    35
100
AcDbSpline
210
0.0
220
0.0
230
1.0
 70
     8
 71
     3
 72
    16
 73
    12
 74
     0
 42
0.000000001
 43
0.00000001
 40
0.0
 40
0.0
 40
0.0
 40
0.0
 40
0.0624999999999992
 40
0.0624999999999992
 40
0.1249999999999984
 40
0.1249999999999984
 40
0.2499999999999969
 40
0.2499999999999969
 40
0.4999999999999969
 40
0.4999999999999969
 40
1.0
 40
1.0
 40
1.0
 40
1.0
 10
910.3689584037752
 20
917.5340426261894
 30
0.0
 10
910.2304932348145
 20
917.5358631636375
 30
0.0
 10
910.0900733997549
 20
917.5365378820645
 30
0.0
 10
909.809236171098
 20
917.5378887500958
 30
0.0
 10
909.6685997114894
 20
917.5384364839044
 30
0.0
 10
909.2465605193398
 20
917.5400035891747
 30
0.0
 10
908.9650109054486
 20
917.5409095484476
 30
0.0
 10
908.1203434532249
 20
917.5434254842812
 30
0.0
 10
907.5570254944432
 20
917.5448015546108
 30
0.0
 10
905.8665230984943
 20
917.5481289609118
 30
0.0
 10
904.7386370309325
 20
917.5492539362532
 30
0.0
 10
903.6107245224555
 20
917.5492539362532
 30
0.0
  0
LINE
  5
111
330
1F
100
AcDbEntity
  8
0
  6
Continuous
 62
     7
370
    35
100
AcDbLine
 10
903.6107245225
 20
917.5492539363
 30
0.0
 11
797.6107245225
 21
917.5492539363
 31
0.0
  0
SPLINE
  5
112
330
1F
100
AcDbEntity
  8
0
  6
Continuous
 62
     7
370
    35
100
AcDbSpline
210
0.0
220
0.0
230
1.0
 70
     8
 71
     3
 72
    16
 73
    12
 74
     0
 42
0.000000001
 43
0.00000001
 40
0.0
 40
0.0
 40
0.0
 40
0.0
 40
0.5000000000000031
 40
0.5000000000000031
 40
0.7500000000000031
 40
0.7500000000000031
 40
0.8750000000000016
 40
0.8750000000000016
 40
0.9375000000000007
 40
0.9375000000000007
 40
1.0
 40
1.0
 40
1.0
 40
1.0
 10
797.6107245224555
 20
917.5492539362532
 30
0.0
 10
796.4827745007907
 20
917.5492539362532
 30
0.0
 10
795.3552327706383
 20
917.5481294584007
 30
0.0
 10
793.6645159956925
 20
917.5448017897721
 30
0.0
 10
793.1010288387845
 20
917.5434253126222
 30
0.0
 10
792.2562477367019
 20
917.5409089528214
 30
0.0
 10
791.974708402439
 20
917.5400029979992
 30
0.0
 10
791.5526348127233
 20
917.538435648488
 30
0.0
 10
791.4119558259011
 20
917.53788770206
 30
0.0
 10
791.1311173099314
 20
917.5365364506862
 30
0.0
 10
790.9907000348161
 20
917.535859800709
 30
0.0
 10
790.8524906411358
 20
917.5340426261894
 30
0.0
  0
SPLINE
  5
113
330
1F
100
AcDbEntity
  8
0
  6
Continuous
 62
     7
370
    35
100
AcDbSpline
210
0.0
220
0.0
230
1.0
 70
     8
 71
     3
 72
    14
 73
    10
 74
     0
 42
0.000000001
 43
0.00000001
 40
0.0
 40
0.0
 40
0.0
 40
0.0
 40
0.25
 40
0.25
 40
0.5
 40
0.5
 40
0.75
 40
0.75
 40
1.0
 40
1.0
 40
1.0
 40
1.0
 10
790.8524906410487
 20
917.5340426262106
 30
0.0
 10
787.6005809064877
 20
917.4912865779257
 30
0.0
 10
784.4776134445688
 20
917.4174216037302
 30
0.0
 10
778.829581400645
 20
917.2155928527735
 30
0.0
 10
776.3071171314051
 20
917.0877248808266
 30
0.0
 10
772.1385907863674
 20
916.792067884891
 30
0.0
 10
770.4943206082742
 20
916.6244102797027
 30
0.0
 10
768.2629599536374
 20
916.2676776422126
 30
0.0
 10
767.6767725094036
 20
916.0787565218502
 30
0.0
 10
767.651548413909
 20
915.8895091961081
 30
0.0
  0
LINE
  5
114
330
1F
100
AcDbEntity
  8
0
  6
Continuous
 62
     7
370
    35
100
AcDbLine
 10
769.6107245225
 20
910.9850816169
 30
0.0
 11
797.6107245225
 21
910.9850816169
 31
0.0
  0
LINE
  5
115
330
1F
100
AcDbEntity
  8
0
  6
Continuous
 62
     7
370
    35
100
AcDbLine
 10
903.6107245225
 20
910.9850816169
 30
0.0
 11
924.7648808718
 21
910.9850816169
 31
0.0
  0
LINE
  5
116
330
1F
100
AcDbEntity
  8
0
  6
Continuous
 62
     7
370
    35
100
AcDbLine
 10
925.3999307893
 20
910.9850816169
 30
0.0
 11
931.6107245225
 21
910.9850816169
 31
0.0
  0
LINE
  5
117
330
1F
100
AcDbEntity
  8
0
  6
Continuous
 62
     7
370
    35
100
AcDbLine
 10
797.6107245225
 20
910.9850816169
 30
0.0
 11
903.6107245225
 21
910.9850816169
 31
0.0
  0
LINE
  5
118
330
1F
100
AcDbEntity
  8
0
  6
Continuous
 62
     7
370
    35
100
AcDbLine
 10
1140.6107245225
 20
933.9846816169
 30
0.0
 11
560.6107245225
 21
933.9846816169
 31
0.0
  0
LINE
  5
119
330
1F
100
AcDbEntity
  8
0
  6
Continuous
 62
     7
370
    35
100
AcDbLine
 10
560.6107245225
 20
934.9846816169
 30
0.0
 11
560.6107245225
 21
933.9846816169
 31
0.0
  0
LINE
  5
11A
330
1F
100
AcDbEntity
  8
0
  6
Continuous
 62
     7
370
    35
100
AcDbLine
 10
1140.6107245225
 20
933.9846816169
 30
0.0
 11
1140.6107245225
 21
934.9846816169
 31
0.0
  0
LINE
  5
11B
330
1F
100
AcDbEntity
  8
0
  6
Continuous
 62
     7
370
    35
100
AcDbLine
 10
560.6107245225
 20
964.4846816169
 30
0.0
 11
1140.6107245225
 21
964.4846816169
 31
0.0
  0
LINE
  5
11C
330
1F
100
AcDbEntity
  8
0
  6
Continuous
 62
     7
370
    35
100
AcDbLine
 10
1140.6107245225
 20
964.4846816169
 30
0.0
 11
1140.6107245225
 21
934.9846816169
 31
0.0
  0
LINE
  5
11D
330
1F
100
AcDbEntity
  8
0
  6
Continuous
 62
     7
370
    35
100
AcDbLine
 10
560.6107245225
 20
934.9846816169
 30
0.0
 11
560.6107245225
 21
964.4846816169
 31
0.0
  0
LINE
  5
11E
330
1F
100
AcDbEntity
  8
0
  6
Continuous
 62
     7
370
    35
100
AcDbLine
 10
769.8107245225
 20
914.0350816169
 30
0.0
 11
797.6107245225
 21
914.0350816169
 31
0.0
  0
LINE
  5
11F
330
1F
100
AcDbEntity
  8
0
  6
Continuous
 62
     7
370
    35
100
AcDbLine
 10
931.4107245225
 20
914.0350816169
 30
0.0
 11
903.6107245225
 21
914.0350816169
 31
0.0
  0
LINE
  5
120
330
1F
100
AcDbEntity
  8
0
  6
Continuous
 62
     7
370
    35
100
AcDbLine
 10
942.1107245225
 20
865.5350816169
 30
0.0
 11
942.1107245225
 21
890.5850816169
 31
0.0
  0
LINE
  5
121
330
1F
100
AcDbEntity
  8
0
  6
Continuous
 62
     7
370
    35
100
AcDbLine
 10
942.1107245225
 20
840.4850816169
 30
0.0
 11
942.1107245225
 21
865.5350816169
 31
0.0
  0
LINE
  5
122
330
1F
100
AcDbEntity
  8
0
  6
Continuous
 62
     7
370
    35
100
AcDbLine
 10
990.6107245225
 20
865.5350816169
 30
0.0
 11
990.6107245225
 21
889.5350816169
 31
0.0
  0
LINE
  5
123
330
1F
100
AcDbEntity
  8
0
  6
Continuous
 62
     7
370
    35
100
AcDbLine
 10
990.6107245225
 20
841.5350816169
 30
0.0
 11
990.6107245225
 21
865.5350816169
 31
0.0
  0
ARC
  5
124
330
1F
100
AcDbEntity
  8
0
  6
Continuous
 62
     7
370
    35
100
AcDbCircle
 10
850.6107245225
 20
865.5850816169
 30
0.0
 40
25.05000000000026
100
AcDbArc
 50
237.7865374201
 51
302.2134625799
  0
SPLINE
  5
125
330
1F
100
AcDbEntity
  8
0
  6
Continuous
 62
     7
370
    35
100
AcDbSpline
210
0.0
220
0.0
230
1.0
 70
    24
 71
     3
 72
    10
 73
     6
 74
     0
 42
0.000000001
 43
0.00000001
 40
0.0
 40
0.0
 40
0.0
 40
0.0
 40
0.2125176675662007
 40
0.6062581077227626
 40
0.9999999999999999
 40
0.9999999999999999
 40
0.9999999999999999
 40
0.9999999999999999
 10
850.6107245224563
 20
890.8970881438581
 30
0.0
 10
850.6107245224555
 20
890.9803716525716
 30
0.0
 10
850.610724522453
 20
891.2179580282144
 30
0.0
 10
850.6107245224565
 20
891.8294225926246
 30
0.0
 10
850.6107245224553
 20
892.4543224309726
 30
0.0
 10
850.6107245224547
 20
892.7667729263055
 30
0.0
  0
SPLINE
  5
126
330
1F
100
AcDbEntity
  8
0
  6
Continuous
 62
     7
370
    35
100
AcDbSpline
210
0.0
220
0.0
230
1.0
 70
     8
 71
     3
 72
    25
 73
    21
 74
     0
 42
0.000000001
 43
0.00000001
 40
0.0
 40
0.0
 40
0.0
 40
0.0
 40
0.0403772850825332
 40
0.0581432905171141
 40
0.0718747463632703
 40
0.0830985540815626
 40
0.0953185813390223
 40
0.1147179721021838
 40
0.1492959713349592
 40
0.229279783527458
 40
0.3102091618275166
 40
0.3726852819819039
 40
0.4313870265629198
 40
0.4804590282852386
 40
0.5235520429457756
 40
0.5708166295125262
 40
0.6751808706738802
 40
0.7818081507417537
 40
0.8902538127997789
 40
1.0
 40
1.0
 40
1.0
 40
1.0
 10
769.1107245224537
 20
910.9850816168906
 30
0.0
 10
769.1173955279837
 20
910.1060289413175
 30
0.0
 10
769.1270017759465
 20
908.84019308853
 30
0.0
 10
769.0875770579697
 20
907.3231355548306
 30
0.0
 10
769.1722615558741
 20
906.3208342953232
 30
0.0
 10
768.4928104465416
 20
905.7738323272628
 30
0.0
 10
767.6850532203407
 20
905.3544443360513
 30
0.0
 10
766.6126683731515
 20
904.355458325978
 30
0.0
 10
765.2853794539521
 20
901.7277804205828
 30
0.0
 10
764.6111609901909
 20
897.5241291362188
 30
0.0
 10
763.5121598148859
 20
892.8285927110572
 30
0.0
 10
762.7736350672839
 20
888.5193181350879
 30
0.0
 10
762.2118549727797
 20
884.8824538391315
 30
0.0
 10
761.8293138304668
 20
881.6422515701969
 30
0.0
 10
761.6371804282468
 20
878.6330136554317
 30
0.0
 10
761.5665967110731
 20
874.4230916493741
 30
0.0
 10
761.9227351354192
 20
868.8378598916462
 30
0.0
 10
763.1474584178579
 20
862.0308435039279
 30
0.0
 10
765.1230863869553
 20
855.2679109591975
 30
0.0
 10
767.097749163715
 20
850.9785512756032
 30
0.0
 10
768.0909655074616
 20
848.8210881421035
 30
0.0
  0
SPLINE
  5
127
330
1F
100
AcDbEntity
  8
0
  6
Continuous
 62
     7
370
    35
100
AcDbSpline
210
0.0
220
0.0
230
1.0
 70
    24
 71
     3
 72
    19
 73
    15
 74
     0
 42
0.000000001
 43
0.00000001
 40
0.0
 40
0.0
 40
0.0
 40
0.0
 40
0.2409130132110067
 40
0.488258280310632
 40
0.5391715029117273
 40
0.589940447867877
 40
0.6400693120936312
 40
0.6899887491764649
 40
0.740041949642864
 40
0.7904190820051404
 40
0.8413201884464402
 40
0.8929676784851894
 40
0.9456873805534207
 40
1.0
 40
1.0
 40
1.0
 40
1.0
 10
850.6107245224547
 20
910.9850816168899
 30
0.0
 10
842.764681424173
 20
910.98508161689
 30
0.0
 10
826.8631099011154
 20
910.98508161689
 30
0.0
 10
809.2976853158145
 20
910.9850816168897
 30
0.0
 10
797.9357985128116
 20
910.98508161689
 30
0.0
 10
792.9800259185671
 20
910.9850816168895
 30
0.0
 10
788.1956651551569
 20
910.98508161689
 30
0.0
 10
783.7120872110263
 20
910.9850816168905
 30
0.0
 10
779.6338369204489
 20
910.9850816168906
 30
0.0
 10
776.0605849789538
 20
910.9850816168906
 30
0.0
 10
773.0941792341341
 20
910.9850816168905
 30
0.0
 10
770.8641530147693
 20
910.9850816168905
 30
0.0
 10
769.390842917747
 20
910.9850816168905
 30
0.0
 10
769.205019166667
 20
910.9850816168906
 30
0.0
 10
769.1107245224537
 20
910.9850816168906
 30
0.0
  0
SPLINE
  5
128
330
1F
100
AcDbEntity
  8
0
  6
Continuous
 62
     7
370
    35
100
AcDbSpline
210
0.0
220
0.0
230
1.0
 70
    24
 71
     3
 72
    18
 73
    14
 74
     0
 42
0.000000001
 43
0.00000001
 40
0.0
 40
0.0
 40
0.0
 40
0.0
 40
0.1056000872447471
 40
0.3249463313005466
 40
0.5456095245813471
 40
0.6686132746948406
 40
0.7011918426142493
 40
0.7339487647370305
 40
0.7672437697818042
 40
0.8035947759165846
 40
0.8401179485066304
 40
0.8975115054529704
 40
0.9999999999999999
 40
0.9999999999999999
 40
0.9999999999999999
 40
0.9999999999999999
 10
850.6107245224547
 20
892.7667729263052
 30
0.0
 10
850.6107245224547
 20
893.4429815354353
 30
0.0
 10
850.6107245224547
 20
895.5237705997604
 30
0.0
 10
850.6107245224547
 20
898.9557606432871
 30
0.0
 10
850.6107245224547
 20
902.6019250792485
 30
0.0
 10
850.6107245224547
 20
904.7460868256721
 30
0.0
 10
850.6107245224547
 20
905.5281955554563
 30
0.0
 10
850.6107245224547
 20
905.809814556729
 30
0.0
 10
850.6107245224548
 20
906.294024159434
 30
0.0
 10
850.6107245224548
 20
907.0541740864869
 30
0.0
 10
850.6107245224547
 20
907.9104829431135
 30
0.0
 10
850.6107245224547
 20
909.2320763269133
 30
0.0
 10
850.6107245224547
 20
910.3003139254927
 30
0.0
 10
850.6107245224547
 20
910.9850816168899
 30
0.0
  0
SPLINE
  5
129
330
1F
100
AcDbEntity
  8
0
  6
Continuous
 62
     7
370
    35
100
AcDbSpline
210
0.0
220
0.0
230
1.0
 70
    24
 71
     3
 72
    19
 73
    15
 74
     0
 42
0.000000001
 43
0.00000001
 40
0.0
 40
0.0
 40
0.0
 40
0.0
 40
0.2409130132110045
 40
0.4882582803106243
 40
0.5391715029117196
 40
0.5899404478678691
 40
0.6400693120936232
 40
0.6899887491764567
 40
0.7400419496428563
 40
0.7904190820051348
 40
0.8413201884464379
 40
0.8929676784851892
 40
0.9456873805534207
 40
1.0
 40
1.0
 40
1.0
 40
1.0
 10
850.6107245224547
 20
910.9850816168899
 30
0.0
 10
858.4567676207364
 20
910.9850816168899
 30
0.0
 10
874.3583391437937
 20
910.98508161689
 30
0.0
 10
891.9237637290943
 20
910.985081616889
 30
0.0
 10
903.2856505320972
 20
910.9850816168895
 30
0.0
 10
908.2414231263416
 20
910.9850816168884
 30
0.0
 10
913.0257838897517
 20
910.9850816168887
 30
0.0
 10
917.5093618338824
 20
910.9850816168893
 30
0.0
 10
921.5876121244598
 20
910.9850816168894
 30
0.0
 10
925.160864065955
 20
910.9850816168894
 30
0.0
 10
928.1272698107754
 20
910.9850816168893
 30
0.0
 10
930.3572960301406
 20
910.985081616889
 30
0.0
 10
931.8306061271628
 20
910.9850816168893
 30
0.0
 10
932.0164298782431
 20
910.9850816168893
 30
0.0
 10
932.1107245224564
 20
910.9850816168893
 30
0.0
  0
SPLINE
  5
12A
330
1F
100
AcDbEntity
  8
0
  6
Continuous
 62
     7
370
    35
100
AcDbSpline
210
0.0
220
0.0
230
1.0
 70
     8
 71
     3
 72
    16
 73
    12
 74
     0
 42
0.000000001
 43
0.00000001
 40
0.0
 40
0.0
 40
0.0
 40
0.0
 40
0.1465768179208916
 40
0.2110706177997923
 40
0.2609182759381922
 40
0.3016627196753193
 40
0.3460236197864541
 40
0.4164469026261959
 40
0.5419712682998716
 40
0.7688489389603022
 40
1.0
 40
1.0
 40
1.0
 40
1.0
 10
932.1107245224564
 20
910.9850816168893
 30
0.0
 10
932.1040546769271
 20
910.1060292882823
 30
0.0
 10
932.0944500993653
 20
908.8401939351261
 30
0.0
 10
932.1338679618984
 20
907.3231343509049
 30
0.0
 10
932.0491981895223
 20
906.320837495929
 30
0.0
 10
932.7286052113243
 20
905.7738223409106
 30
0.0
 10
933.5365684084579
 20
905.3544959573704
 30
0.0
 10
934.607336213527
 20
904.355026276138
 30
0.0
 10
935.7764634709772
 20
902.0748575375925
 30
0.0
 10
936.379276471641
 20
898.631632730794
 30
0.0
 10
936.992497527818
 20
895.9766343215821
 30
0.0
 10
937.3019687202934
 20
894.6367496006607
 30
0.0
  0
SPLINE
  5
12B
330
1F
100
AcDbEntity
  8
0
  6
Continuous
 62
     7
370
    35
100
AcDbSpline
210
0.0
220
0.0
230
1.0
 70
     8
 71
     3
 72
    14
 73
    10
 74
     0
 42
0.000000001
 43
0.00000001
 40
0.0
 40
0.0
 40
0.0
 40
0.0
 40
0.1497838616746357
 40
0.3039198677007078
 40
0.4537011775423317
 40
0.6078081864720632
 40
0.757933700022959
 40
0.9123691506710973
 40
1.0
 40
1.0
 40
1.0
 40
1.0
 10
768.0909655074616
 20
848.8210881421035
 30
0.0
 10
768.4998122205733
 20
848.0959736292626
 30
0.0
 10
769.3293851636763
 20
846.6246755578508
 30
0.0
 10
771.0129204086122
 20
844.7302367611011
 30
0.0
 10
772.9830275807398
 20
843.1137576321565
 30
0.0
 10
775.1843416226278
 20
841.8636859754611
 30
0.0
 10
777.5849013868738
 20
840.9957883651782
 30
0.0
 10
779.7354135670261
 20
840.5876669513679
 30
0.0
 10
781.077933940754
 20
840.5490583756589
 30
0.0
 10
781.5639421153833
 20
840.5350816168905
 30
0.0
  0
SPLINE
  5
12C
330
1F
100
AcDbEntity
  8
0
  6
Continuous
 62
     7
370
    35
100
AcDbSpline
210
0.0
220
0.0
230
1.0
 70
    24
 71
     3
 72
    19
 73
    15
 74
     0
 42
0.000000001
 43
0.00000001
 40
0.0
 40
0.0
 40
0.0
 40
0.0
 40
0.0339082014123464
 40
0.0838890956615407
 40
0.1338856406936261
 40
0.1787639190833877
 40
0.2236368521988041
 40
0.2646138248638227
 40
0.3055644086924196
 40
0.3465596390526748
 40
0.3876059998972899
 40
0.5510999779005308
 40
0.7146015071203439
 40
1.0
 40
1.0
 40
1.0
 40
1.0
 10
781.5639421153833
 20
840.5350816168905
 30
0.0
 10
781.7043719688131
 20
840.5350816168905
 30
0.0
 10
782.0517962767215
 20
840.5350816168905
 30
0.0
 10
783.2496724435186
 20
840.5350816168905
 30
0.0
 10
785.099867263988
 20
840.5350816168905
 30
0.0
 10
787.3922196844674
 20
840.5350816168905
 30
0.0
 10
789.9151112157173
 20
840.5350816168905
 30
0.0
 10
792.6807289190658
 20
840.5350816168905
 30
0.0
 10
795.6095199263725
 20
840.5350816168905
 30
0.0
 10
798.7559625071245
 20
840.5350816168905
 30
0.0
 10
805.246819058113
 20
840.5350816168905
 30
0.0
 10
814.9844281721266
 20
840.5350816168902
 30
0.0
 10
831.1872343895492
 20
840.5350816168897
 30
0.0
 10
843.0614312891006
 20
840.5350816168897
 30
0.0
 10
850.6107245224553
 20
840.5350816168898
 30
0.0
  0
SPLINE
  5
12D
330
1F
100
AcDbEntity
  8
0
  6
Continuous
 62
     7
370
    35
100
AcDbSpline
210
0.0
220
0.0
230
1.0
 70
    24
 71
     3
 72
    19
 73
    15
 74
     0
 42
0.000000001
 43
0.00000001
 40
0.0
 40
0.0
 40
0.0
 40
0.0
 40
0.0339064855174936
 40
0.0831372973791089
 40
0.1338840147717978
 40
0.1782456415880433
 40
0.2236320967859881
 40
0.2641259724126844
 40
0.3055570601923704
 40
0.3459382551888642
 40
0.3876378429813757
 40
0.551087819285942
 40
0.7146159494612726
 40
1.0
 40
1.0
 40
1.0
 40
1.0
 10
919.6575069295279
 20
840.5350816168892
 30
0.0
 10
919.5169209967277
 20
840.5350816168891
 30
0.0
 10
919.1722101154861
 20
840.5350816168891
 30
0.0
 10
917.9839389113783
 20
840.5350816168892
 30
0.0
 10
916.1392246328348
 20
840.5350816168891
 30
0.0
 10
913.839951848551
 20
840.5350816168891
 30
0.0
 10
911.3260906377271
 20
840.5350816168891
 30
0.0
 10
908.5533832087599
 20
840.5350816168891
 30
0.0
 10
905.6363426591531
 20
840.5350816168891
 30
0.0
 10
902.4889334419604
 20
840.5350816168891
 30
0.0
 10
895.9868857614143
 20
840.5350816168891
 30
0.0
 10
886.240200229471
 20
840.5350816168901
 30
0.0
 10
870.0340526793693
 20
840.5350816168897
 30
0.0
 10
858.1595962562866
 20
840.5350816168898
 30
0.0
 10
850.6107245224553
 20
840.5350816168898
 30
0.0
  0
SPLINE
  5
12E
330
1F
100
AcDbEntity
  8
0
  6
Continuous
 62
     7
370
    35
100
AcDbSpline
210
0.0
220
0.0
230
1.0
 70
     8
 71
     3
 72
    10
 73
     6
 74
     0
 42
0.000000001
 43
0.00000001
 40
0.0
 40
0.0
 40
0.0
 40
0.0
 40
0.0149525925089902
 40
0.5037698573839624
 40
1.0
 40
1.0
 40
1.0
 40
1.0
 10
923.610724522457
 20
840.5350816168891
 30
0.0
 10
923.6116651008131
 20
840.5351222800289
 30
0.0
 10
923.6433542559895
 20
840.5364922674794
 30
0.0
 10
923.7063543107093
 20
840.6540946045592
 30
0.0
 10
923.7680082279115
 20
841.0874205509118
 30
0.0
 10
923.7990671717688
 20
841.3057140000622
 30
0.0
  0
LINE
  5
12F
330
1F
100
AcDbEntity
  8
0
  6
Continuous
 62
     7
370
    35
100
AcDbLine
 10
937.3019687203
 20
894.6367496007
 30
0.0
 11
937.5240273083
 21
893.2162821114
 31
0.0
  0
SPLINE
  5
130
330
1F
100
AcDbEntity
  8
0
  6
Continuous
 62
     7
370
    35
100
AcDbSpline
210
0.0
220
0.0
230
1.0
 70
     8
 71
     3
 72
    13
 73
     9
 74
     0
 42
0.000000001
 43
0.00000001
 40
0.0
 40
0.0
 40
0.0
 40
0.0
 40
0.0095081972613442
 40
0.0791116948017535
 40
0.3094644223199435
 40
0.5396843471459984
 40
0.7698410895023555
 40
1.0
 40
1.0
 40
1.0
 40
1.0
 10
940.5085589489831
 20
890.5350816168896
 30
0.0
 10
940.494692719169
 20
890.5351437808214
 30
0.0
 10
940.3793205922606
 20
890.5356610075747
 30
0.0
 10
939.9285422521268
 20
890.5651961522748
 30
0.0
 10
939.1690681860912
 20
890.7853078393362
 30
0.0
 10
938.3400760529618
 20
891.3833485983874
 30
0.0
 10
937.7304199956611
 20
892.2209295234875
 30
0.0
 10
937.5928250867851
 20
892.884496873622
 30
0.0
 10
937.5240273083028
 20
893.2162821114298
 30
0.0
  0
ARC
  5
131
330
1F
100
AcDbEntity
  8
0
  6
Continuous
 62
     7
370
    35
100
AcDbCircle
 10
1141.6107245225
 20
932.9846816169
 30
0.0
 40
1.0
100
AcDbArc
 50
90.0
 51
180.0
  0
ARC
  5
132
330
1F
100
AcDbEntity
  8
0
  6
Continuous
 62
     7
370
    35
100
AcDbCircle
 10
1141.6107245225
 20
932.9846816169
 30
0.0
 40
1.0
100
AcDbArc
 50
0.0
 51
90.0
  0
LINE
  5
133
330
1F
100
AcDbEntity
  8
0
  6
Continuous
 62
     7
370
    35
100
AcDbLine
 10
1140.6107245225
 20
932.9846816169
 30
0.0
 11
1140.6107245225
 21
922.9846816169
 31
0.0
  0
LINE
  5
134
330
1F
100
AcDbEntity
  8
0
  6
Continuous
 62
     7
370
    35
100
AcDbLine
 10
1142.6107245225
 20
932.9846816169
 30
0.0
 11
1142.6107245225
 21
921.9846816169
 31
0.0
  0
LINE
  5
135
330
1F
100
AcDbEntity
  8
0
  6
Continuous
 62
     7
370
    35
100
AcDbLine
 10
1140.6107245225
 20
918.8866658985
 30
0.0
 11
1140.6107245225
 21
915.2588221385
 31
0.0
  0
LINE
  5
136
330
1F
100
AcDbEntity
  8
0
  6
Continuous
 62
     7
370
    35
100
AcDbLine
 10
1142.6107245225
 20
920.9846816169
 30
0.0
 11
1142.6107245225
 21
915.2588221385
 31
0.0
  0
LINE
  5
137
330
1F
100
AcDbEntity
  8
0
  6
Continuous
 62
     7
370
    35
100
AcDbLine
 10
1140.6107245225
 20
913.4462065644
 30
0.0
 11
1140.6107245225
 21
915.2588221385
 31
0.0
  0
LINE
  5
138
330
1F
100
AcDbEntity
  8
0
  6
Continuous
 62
     7
370
    35
100
AcDbLine
 10
1142.6107245225
 20
915.2588221385
 30
0.0
 11
1142.6107245225
 21
913.4462065644
 31
0.0
  0
LINE
  5
139
330
1F
100
AcDbEntity
  8
0
  6
Continuous
 62
     7
370
    35
100
AcDbLine
 10
1140.6107245225
 20
913.4462065644
 30
0.0
 11
1140.6107245225
 21
906.1879072798
 31
0.0
  0
LINE
  5
13A
330
1F
100
AcDbEntity
  8
0
  6
Continuous
 62
     7
370
    35
100
AcDbLine
 10
1142.6107245225
 20
913.4462065644
 30
0.0
 11
1142.6107245225
 21
906.1879072798
 31
0.0
  0
LINE
  5
13B
330
1F
100
AcDbEntity
  8
0
  6
Continuous
 62
     7
370
    35
100
AcDbLine
 10
1140.6107245225
 20
904.3752917058
 30
0.0
 11
1140.6107245225
 21
906.1879072798
 31
0.0
  0
LINE
  5
13C
330
1F
100
AcDbEntity
  8
0
  6
Continuous
 62
     7
370
    35
100
AcDbLine
 10
1142.6107245225
 20
906.1879072798
 30
0.0
 11
1142.6107245225
 21
904.3752917058
 31
0.0
  0
LINE
  5
13D
330
1F
100
AcDbEntity
  8
0
  6
Continuous
 62
     7
370
    35
100
AcDbLine
 10
1140.6107245225
 20
904.3752917058
 30
0.0
 11
1140.6107245225
 21
870.0846816169
 31
0.0
  0
LINE
  5
13E
330
1F
100
AcDbEntity
  8
0
  6
Continuous
 62
     7
370
    35
100
AcDbLine
 10
1142.6107245225
 20
904.3752917058
 30
0.0
 11
1142.6107245225
 21
870.0846816169
 31
0.0
  0
LINE
  5
13F
330
1F
100
AcDbEntity
  8
0
  6
Continuous
 62
     7
370
    35
100
AcDbLine
 10
1142.6107245225
 20
868.0846816169
 30
0.0
 11
1140.6107245225
 21
868.0846816169
 31
0.0
  0
LINE
  5
140
330
1F
100
AcDbEntity
  8
0
  6
Continuous
 62
     7
370
    35
100
AcDbLine
 10
1140.6107245225
 20
868.0846816169
 30
0.0
 11
1140.6107245225
 21
870.0846816169
 31
0.0
  0
LINE
  5
141
330
1F
100
AcDbEntity
  8
0
  6
Continuous
 62
     7
370
    35
100
AcDbLine
 10
1142.6107245225
 20
870.0846816169
 30
0.0
 11
1142.6107245225
 21
868.0846816169
 31
0.0
  0
LINE
  5
142
330
1F
100
AcDbEntity
  8
0
  6
Continuous
 62
     7
370
    35
100
AcDbLine
 10
558.6107245225
 20
932.9846816169
 30
0.0
 11
558.6107245225
 21
921.9846816169
 31
0.0
  0
ARC
  5
143
330
1F
100
AcDbEntity
  8
0
  6
Continuous
 62
     7
370
    35
100
AcDbCircle
 10
559.6107245225
 20
932.9846816169
 30
0.0
 40
1.0
100
AcDbArc
 50
90.0
 51
180.0
  0
ARC
  5
144
330
1F
100
AcDbEntity
  8
0
  6
Continuous
 62
     7
370
    35
100
AcDbCircle
 10
559.6107245225
 20
932.9846816169
 30
0.0
 40
1.0
100
AcDbArc
 50
0.0
 51
90.0
  0
LINE
  5
145
330
1F
100
AcDbEntity
  8
0
  6
Continuous
 62
     7
370
    35
100
AcDbLine
 10
560.6107245225
 20
932.9846816169
 30
0.0
 11
560.6107245225
 21
922.9846816169
 31
0.0
  0
LINE
  5
146
330
1F
100
AcDbEntity
  8
0
  6
Continuous
 62
     7
370
    35
100
AcDbLine
 10
558.6107245225
 20
920.9846816169
 30
0.0
 11
558.6107245225
 21
915.2588221385
 31
0.0
  0
LINE
  5
147
330
1F
100
AcDbEntity
  8
0
  6
Continuous
 62
     7
370
    35
100
AcDbLine
 10
560.6107245225
 20
918.8866658985
 30
0.0
 11
560.6107245225
 21
915.2588221385
 31
0.0
  0
LINE
  5
148
330
1F
100
AcDbEntity
  8
0
  6
Continuous
 62
     7
370
    35
100
AcDbLine
 10
558.6107245225
 20
913.4462065644
 30
0.0
 11
558.6107245225
 21
915.2588221385
 31
0.0
  0
LINE
  5
149
330
1F
100
AcDbEntity
  8
0
  6
Continuous
 62
     7
370
    35
100
AcDbLine
 10
560.6107245225
 20
915.2588221385
 30
0.0
 11
560.6107245225
 21
913.4462065644
 31
0.0
  0
LINE
  5
14A
330
1F
100
AcDbEntity
  8
0
  6
Continuous
 62
     7
370
    35
100
AcDbLine
 10
558.6107245225
 20
913.4462065644
 30
0.0
 11
558.6107245225
 21
906.1879072798
 31
0.0
  0
LINE
  5
14B
330
1F
100
AcDbEntity
  8
0
  6
Continuous
 62
     7
370
    35
100
AcDbLine
 10
560.6107245225
 20
913.4462065644
 30
0.0
 11
560.6107245225
 21
906.1879072798
 31
0.0
  0
LINE
  5
14C
330
1F
100
AcDbEntity
  8
0
  6
Continuous
 62
     7
370
    35
100
AcDbLine
 10
558.6107245225
 20
904.3752917058
 30
0.0
 11
558.6107245225
 21
906.1879072798
 31
0.0
  0
LINE
  5
14D
330
1F
100
AcDbEntity
  8
0
  6
Continuous
 62
     7
370
    35
100
AcDbLine
 10
560.6107245225
 20
906.1879072798
 30
0.0
 11
560.6107245225
 21
904.3752917058
 31
0.0
  0
LINE
  5
14E
330
1F
100
AcDbEntity
  8
0
  6
Continuous
 62
     7
370
    35
100
AcDbLine
 10
558.6107245225
 20
904.3752917058
 30
0.0
 11
558.6107245225
 21
870.0846816169
 31
0.0
  0
LINE
  5
14F
330
1F
100
AcDbEntity
  8
0
  6
Continuous
 62
     7
370
    35
100
AcDbLine
 10
560.6107245225
 20
904.3752917058
 30
0.0
 11
560.6107245225
 21
870.0846816169
 31
0.0
  0
LINE
  5
150
330
1F
100
AcDbEntity
  8
0
  6
Continuous
 62
     7
370
    35
100
AcDbLine
 10
560.6107245225
 20
868.0846816169
 30
0.0
 11
558.6107245225
 21
868.0846816169
 31
0.0
  0
LINE
  5
151
330
1F
100
AcDbEntity
  8
0
  6
Continuous
 62
     7
370
    35
100
AcDbLine
 10
558.6107245225
 20
868.0846816169
 30
0.0
 11
558.6107245225
 21
870.0846816169
 31
0.0
  0
LINE
  5
152
330
1F
100
AcDbEntity
  8
0
  6
Continuous
 62
     7
370
    35
100
AcDbLine
 10
560.6107245225
 20
870.0846816169
 30
0.0
 11
560.6107245225
 21
868.0846816169
 31
0.0
  0
LINE
  5
153
330
1F
100
AcDbEntity
  8
0
  6
Continuous
 62
     7
370
    35
100
AcDbLine
 10
538.1107245225
 20
920.9846816169
 30
0.0
 11
528.1107245225
 21
920.9846816169
 31
0.0
  0
LINE
  5
154
330
1F
100
AcDbEntity
  8
0
  6
Continuous
 62
     7
370
    35
100
AcDbLine
 10
528.1107245225
 20
920.9846816169
 30
0.0
 11
528.1107245225
 21
921.9846816169
 31
0.0
  0
LINE
  5
155
330
1F
100
AcDbEntity
  8
0
  6
Continuous
 62
     7
370
    35
100
AcDbLine
 10
528.1107245225
 20
921.9846816169
 30
0.0
 11
538.1107245225
 21
921.9846816169
 31
0.0
  0
LINE
  5
156
330
1F
100
AcDbEntity
  8
0
  6
Continuous
 62
     7
370
    35
100
AcDbLine
 10
560.6107245225
 20
921.9846816169
 30
0.0
 11
538.1107245225
 21
921.9846816169
 31
0.0
  0
LINE
  5
157
330
1F
100
AcDbEntity
  8
0
  6
Continuous
 62
     7
370
    35
100
AcDbLine
 10
560.6107245225
 20
920.9846816169
 30
0.0
 11
538.1107245225
 21
920.9846816169
 31
0.0
  0
LINE
  5
158
330
1F
100
AcDbEntity
  8
0
  6
Continuous
 62
     7
370
    35
100
AcDbLine
 10
528.1107245225
 20
922.9846816169
 30
0.0
 11
528.1107245225
 21
921.9846816169
 31
0.0
  0
ARC
  5
159
330
1F
100
AcDbEntity
  8
0
  6
Continuous
 62
     7
370
    35
100
AcDbCircle
 10
538.1107245225
 20
954.4846816169
 30
0.0
 40
10.0
100
AcDbArc
 50
90.0
 51
180.0
  0
LINE
  5
15A
330
1F
100
AcDbEntity
  8
0
  6
Continuous
 62
     7
370
    35
100
AcDbLine
 10
560.6107245225
 20
964.4846816169
 30
0.0
 11
538.1107245225
 21
964.4846816169
 31
0.0
  0
LINE
  5
15B
330
1F
100
AcDbEntity
  8
0
  6
Continuous
 62
     7
370
    35
100
AcDbLine
 10
528.1107245225
 20
954.4846816169
 30
0.0
 11
528.1107245225
 21
922.9846816169
 31
0.0
  0
LINE
  5
15C
330
1F
100
AcDbEntity
  8
0
  6
Continuous
 62
     7
370
    35
100
AcDbLine
 10
1140.6107245225
 20
920.9846816169
 30
0.0
 11
1163.1107245225
 21
920.9846816169
 31
0.0
  0
LINE
  5
15D
330
1F
100
AcDbEntity
  8
0
  6
Continuous
 62
     7
370
    35
100
AcDbLine
 10
1140.6107245225
 20
921.9846816169
 30
0.0
 11
1163.1107245225
 21
921.9846816169
 31
0.0
  0
LINE
  5
15E
330
1F
100
AcDbEntity
  8
0
  6
Continuous
 62
     7
370
    35
100
AcDbLine
 10
1173.1107245225
 20
921.9846816169
 30
0.0
 11
1173.1107245225
 21
920.9846816169
 31
0.0
  0
LINE
  5
15F
330
1F
100
AcDbEntity
  8
0
  6
Continuous
 62
     7
370
    35
100
AcDbLine
 10
1173.1107245225
 20
920.9846816169
 30
0.0
 11
1163.1107245225
 21
920.9846816169
 31
0.0
  0
LINE
  5
160
330
1F
100
AcDbEntity
  8
0
  6
Continuous
 62
     7
370
    35
100
AcDbLine
 10
1163.1107245225
 20
921.9846816169
 30
0.0
 11
1173.1107245225
 21
921.9846816169
 31
0.0
  0
LINE
  5
161
330
1F
100
AcDbEntity
  8
0
  6
Continuous
 62
     7
370
    35
100
AcDbLine
 10
1173.1107245225
 20
921.9846816169
 30
0.0
 11
1173.1107245225
 21
922.9846816169
 31
0.0
  0
LINE
  5
162
330
1F
100
AcDbEntity
  8
0
  6
Continuous
 62
     7
370
    35
100
AcDbLine
 10
1140.6107245225
 20
964.4846816169
 30
0.0
 11
1163.1107245225
 21
964.4846816169
 31
0.0
  0
ARC
  5
163
330
1F
100
AcDbEntity
  8
0
  6
Continuous
 62
     7
370
    35
100
AcDbCircle
 10
1163.1107245225
 20
954.4846816169
 30
0.0
 40
10.0
100
AcDbArc
 50
0.0
 51
90.0
  0
LINE
  5
164
330
1F
100
AcDbEntity
  8
0
  6
Continuous
 62
     7
370
    35
100
AcDbLine
 10
1173.1107245225
 20
954.4846816169
 30
0.0
 11
1173.1107245225
 21
922.9846816169
 31
0.0
  0
LINE
  5
165
330
1F
100
AcDbEntity
  8
0
  6
Continuous
 62
     8
370
    18
100
AcDbLine
 10
1140.6107245225
 20
922.9846816169
 30
0.0
 11
560.6107245225
 21
922.9846816169
 31
0.0
  0
LINE
  5
166
330
1F
100
AcDbEntity
  8
0
  6
Continuous
 62
     8
370
    18
100
AcDbLine
 10
560.6107245225
 20
932.4846816169
 30
0.0
 11
1140.6107245225
 21
932.4846816169
 31
0.0
  0
LINE
  5
167
330
1F
100
AcDbEntity
  8
0
  6
Continuous
 62
     8
370
    18
100
AcDbLine
 10
560.6107245225
 20
917.6498167651
 30
0.0
 11
1140.6107245225
 21
917.6498167651
 31
0.0
  0
LINE
  5
168
330
1F
100
AcDbEntity
  8
0
  6
Continuous
 62
     8
370
    18
100
AcDbLine
 10
560.6107245225
 20
919.6466001062
 30
0.0
 11
1140.6107245225
 21
919.6466001062
 31
0.0
  0
LINE
  5
169
330
1F
100
AcDbEntity
  8
0
  6
Continuous
 62
     8
370
    18
100
AcDbLine
 10
560.6107245225
 20
915.8895091961
 30
0.0
 11
767.6515484138
 21
915.8895091961
 31
0.0
  0
LINE
  5
16A
330
1F
100
AcDbEntity
  8
0
  6
Continuous
 62
     8
370
    18
100
AcDbLine
 10
933.5699006311
 20
915.8895091961
 30
0.0
 11
1140.6107245225
 21
915.8895091961
 31
0.0
  0
SPLINE
  5
16B
330
1F
100
AcDbEntity
  8
0
  6
Continuous
 62
     8
370
    18
100
AcDbSpline
210
0.0
220
0.0
230
1.0
 70
     8
 71
     3
 72
    10
 73
     6
 74
     0
 42
0.000000001
 43
0.00000001
 40
0.0
 40
0.0
 40
0.0
 40
0.0
 40
0.5
 40
0.5
 40
1.0
 40
1.0
 40
1.0
 40
1.0
 10
909.9268366295508
 20
915.5398651936623
 30
0.0
 10
908.8877929467926
 20
915.554502329606
 30
0.0
 10
907.8421806260882
 20
915.5889723067584
 30
0.0
 10
905.7370541912617
 20
915.6419959131547
 30
0.0
 10
904.6775367798003
 20
915.6604485297164
 30
0.0
 10
903.610724522456
 20
915.6604485297164
 30
0.0
  0
LINE
  5
16C
330
1F
100
AcDbEntity
  8
0
  6
Continuous
 62
     8
370
    18
100
AcDbLine
 10
903.6107245225
 20
915.6604485297
 30
0.0
 11
903.6107245225
 21
917.5492539363
 31
0.0
  0
ARC
  5
16D
330
1F
100
AcDbEntity
  8
0
  6
Continuous
 62
     8
370
    18
100
AcDbCircle
 10
912.8909515315
 20
915.9288014516
 30
0.0
 40
2.989523133340462
100
AcDbArc
 50
147.5233674626
 51
187.4753574051
  0
SPLINE
  5
16E
330
1F
100
AcDbEntity
  8
0
  6
Continuous
 62
     8
370
    18
100
AcDbSpline
210
0.0
220
0.0
230
1.0
 70
     8
 71
     3
 72
    10
 73
     6
 74
     0
 42
0.000000001
 43
0.00000001
 40
0.0
 40
0.0
 40
0.0
 40
0.0
 40
0.5
 40
0.5
 40
1.0
 40
1.0
 40
1.0
 40
1.0
 10
797.6107245224555
 20
915.6604485296756
 30
0.0
 10
796.5439122651114
 20
915.6604485296756
 30
0.0
 10
795.4843948536495
 20
915.6419959131547
 30
0.0
 10
793.3792684188229
 20
915.5889723067584
 30
0.0
 10
792.3336560981184
 20
915.5545023296378
 30
0.0
 10
791.2946124153601
 20
915.5398651936944
 30
0.0
  0
ARC
  5
16F
330
1F
100
AcDbEntity
  8
0
  6
Continuous
 62
     8
370
    18
100
AcDbCircle
 10
788.3304975124
 20
915.9288014514
 30
0.0
 40
2.989523134309749
100
AcDbArc
 50
352.5246425999
 51
32.476632528
  0
LINE
  5
170
330
1F
100
AcDbEntity
  8
0
  6
Continuous
 62
     8
370
    18
100
AcDbLine
 10
797.6107245225
 20
915.6604485297
 30
0.0
 11
797.6107245225
 21
917.5492539363
 31
0.0
  0
LINE
  5
171
330
1F
100
AcDbEntity
  8
0
  6
Continuous
 62
     8
370
    18
100
AcDbLine
 10
903.6107245225
 20
915.6604485297
 30
0.0
 11
797.6107245225
 21
915.6604485297
 31
0.0
  0
ELLIPSE
  5
172
330
1F
100
AcDbEntity
  8
0
  6
Continuous
 62
     8
370
    18
100
AcDbEllipse
 10
903.6107245225
 20
913.8802488559
 30
0.0
 11
28.0
 21
0.0
 31
0.0
210
0.0
220
0.0
230
1.0
 40
0.0608401234
 41
0.0075591103181333
 42
1.34326267482132
  0
ARC
  5
173
330
1F
100
AcDbEntity
  8
0
  6
Continuous
 62
     8
370
    18
100
AcDbCircle
 10
933.6092233685
 20
913.8905796579
 30
0.0
 40
1.999300425703758
100
AcDbArc
 50
91.1268920303
 51
179.9270312827
  0
ELLIPSE
  5
174
330
1F
100
AcDbEntity
  8
0
  6
Continuous
 62
     8
370
    18
100
AcDbEllipse
 10
797.6107245225
 20
913.8802488559
 30
0.0
 11
28.0
 21
0.0
 31
0.0
210
0.0
220
0.0
230
1.0
 40
0.0608401234
 41
1.798329978768473
 42
3.134033543271658
  0
ARC
  5
175
330
1F
100
AcDbEntity
  8
0
  6
Continuous
 62
     8
370
    18
100
AcDbCircle
 10
767.6122256764
 20
913.8905796579
 30
0.0
 40
1.999300425704554
100
AcDbArc
 50
0.0729687173
 51
88.8731079807
  0
LINE
  5
176
330
1F
100
AcDbEntity
  8
0
  6
Continuous
 62
     8
370
    18
100
AcDbLine
 10
797.6107245225
 20
915.6604485297
 30
0.0
 11
797.6107245225
 21
910.9850816169
 31
0.0
  0
LINE
  5
177
330
1F
100
AcDbEntity
  8
0
  6
Continuous
 62
     8
370
    18
100
AcDbLine
 10
903.6107245225
 20
915.6604485297
 30
0.0
 11
903.6107245225
 21
910.9850816169
 31
0.0
  0
LINE
  5
178
330
1F
100
AcDbEntity
  8
0
  6
Continuous
 62
     8
370
    18
100
AcDbLine
 10
1140.6107245225
 20
934.9846816169
 30
0.0
 11
560.6107245225
 21
934.9846816169
 31
0.0
  0
LINE
  5
179
330
1F
100
AcDbEntity
  8
0
  6
Continuous
 62
     8
370
    18
100
AcDbLine
 10
769.6706969412
 20
913.6922800886
 30
0.0
 11
797.6107245225
 21
913.6922800886
 31
0.0
  0
LINE
  5
17A
330
1F
100
AcDbEntity
  8
0
  6
Continuous
 62
     8
370
    18
100
AcDbLine
 10
931.5507521037
 20
913.6922800886
 30
0.0
 11
903.6107245225
 21
913.6922800886
 31
0.0
  0
LINE
  5
17B
330
1F
100
AcDbEntity
  8
0
  6
Continuous
 62
     8
370
    18
100
AcDbLine
 10
985.2991228681
 20
840.4850816169
 30
0.0
 11
985.2991228681
 21
890.5850816169
 31
0.0
  0
LINE
  5
17C
330
1F
100
AcDbEntity
  8
0
  6
Continuous
 62
     8
370
    18
100
AcDbLine
 10
985.915674571
 20
890.5210421067
 30
0.0
 11
985.915674571
 21
840.5491211271
 31
0.0
  0
SPLINE
  5
17D
330
1F
100
AcDbEntity
  8
0
  6
Continuous
 62
     8
370
    18
100
AcDbSpline
210
0.0
220
0.0
230
1.0
 70
     8
 71
     3
 72
    33
 73
    29
 74
     0
 42
0.000000001
 43
0.00000001
 40
0.0
 40
0.0
 40
0.0
 40
0.0
 40
0.0272519121761632
 40
0.0643955705395721
 40
0.1017679836315392
 40
0.1399161503387564
 40
0.1783602451249495
 40
0.230931335045738
 40
0.2840751350454496
 40
0.3463079719325329
 40
0.3778605917354002
 40
0.4098349893637301
 40
0.4664493290388119
 40
0.5237708874937667
 40
0.5552660258970229
 40
0.5869395080180245
 40
0.6191572696364614
 40
0.6515559584292159
 40
0.6730472716079232
 40
0.7163558120329118
 40
0.7603800963832656
 40
0.8051322093176816
 40
0.8276949767825301
 40
0.8487242154456166
 40
0.8910915758444968
 40
0.9341506962041374
 40
0.9779263650739449
 40
0.9999999999999999
 40
0.9999999999999999
 40
0.9999999999999999
 40
0.9999999999999999
 10
831.1240615835824
 20
849.6183256408316
 30
0.0
 10
830.8025908097461
 20
850.0029148578764
 30
0.0
 10
830.0429636041698
 20
850.9116893282646
 30
0.0
 10
828.9598440984257
 20
852.4510796348774
 30
0.0
 10
827.8873226876469
 20
854.2503312468245
 30
0.0
 10
826.9528273174423
 20
856.1698234990524
 30
0.0
 10
826.0778967331256
 20
858.4453851270204
 30
0.0
 10
825.3645704966211
 20
861.1015849019042
 30
0.0
 10
824.9196342999447
 20
864.3039339762284
 30
0.0
 10
824.9189803996597
 20
867.1582980601559
 30
0.0
 10
825.1935900502881
 20
869.5840974087696
 30
0.0
 10
825.6320168971164
 20
871.8773252328753
 30
0.0
 10
826.4590794517729
 20
874.5969662615297
 30
0.0
 10
827.639981852231
 20
877.1679667738061
 30
0.0
 10
828.8293974917713
 20
879.1764992153999
 30
0.0
 10
829.8842826210843
 20
880.6912677947225
 30
0.0
 10
831.05785364906
 20
882.1352815297236
 30
0.0
 10
832.1991116356181
 20
883.3438461462875
 30
0.0
 10
833.5667508805177
 20
884.6243830619522
 30
0.0
 10
835.2002427100176
 20
885.9424554067341
 30
0.0
 10
837.3305175054428
 20
887.338044090039
 30
0.0
 10
839.2363263822256
 20
888.3353805938382
 30
0.0
 10
840.8030085816939
 20
889.0114261486211
 30
0.0
 10
842.3586159078302
 20
889.5951590667061
 30
0.0
 10
844.3362743255957
 20
890.182911545836
 30
0.0
 10
846.7968064659768
 20
890.6623830582743
 30
0.0
 10
848.9037168391824
 20
890.8744804099773
 30
0.0
 10
850.1821689604557
 20
890.891412322833
 30
0.0
 10
850.6107245224538
 20
890.8970881438581
 30
0.0
  0
SPLINE
  5
17E
330
1F
100
AcDbEntity
  8
0
  6
Continuous
 62
     8
370
    18
100
AcDbSpline
210
0.0
220
0.0
230
1.0
 70
    24
 71
     3
 72
    21
 73
    17
 74
     0
 42
0.000000001
 43
0.00000001
 40
0.0
 40
0.0
 40
0.0
 40
0.0
 40
0.0720514219264898
 40
0.1446031256583227
 40
0.2187326761061081
 40
0.2934074331762792
 40
0.3654588516753558
 40
0.4380105213676804
 40
0.5121399203052112
 40
0.5868144764983323
 40
0.6588679246026053
 40
0.7314216095207121
 40
0.8055529476989901
 40
0.8802294033636547
 40
0.9908667802310032
 40
1.0
 40
1.0
 40
1.0
 40
1.0
 10
850.6107245224536
 20
890.8970881438581
 30
0.0
 10
850.6107245224493
 20
890.7425353018878
 30
0.0
 10
850.6107245224409
 20
890.4323564958246
 30
0.0
 10
850.6107245224562
 20
889.8616918430965
 30
0.0
 10
850.6107245224559
 20
889.212713073948
 30
0.0
 10
850.6107245224613
 20
888.4898719737255
 30
0.0
 10
850.6107245224448
 20
887.705709736954
 30
0.0
 10
850.6107245224591
 20
886.8629489823147
 30
0.0
 10
850.6107245224522
 20
885.954064729326
 30
0.0
 10
850.6107245224484
 20
884.9970939341413
 30
0.0
 10
850.6107245224555
 20
884.0048031027055
 30
0.0
 10
850.6107245224513
 20
882.9803272918294
 30
0.0
 10
850.6107245224587
 20
881.9151854495676
 30
0.0
 10
850.6107245224393
 20
880.642606326671
 30
0.0
 10
850.6107245224943
 20
879.6734441694599
 30
0.0
 10
850.6107245224458
 20
879.0768710180029
 30
0.0
 10
850.6107245224421
 20
879.0313787698756
 30
0.0
  0
SPLINE
  5
17F
330
1F
100
AcDbEntity
  8
0
  6
Continuous
 62
     8
370
    18
100
AcDbSpline
210
0.0
220
0.0
230
1.0
 70
     8
 71
     3
 72
    20
 73
    16
 74
     0
 42
0.000000001
 43
0.00000001
 40
0.0
 40
0.0
 40
0.0
 40
0.0
 40
0.0031848875244884
 40
0.0996872166702685
 40
0.1961928561586089
 40
0.2929138960264298
 40
0.3894614585497549
 40
0.4531459406897289
 40
0.5167654851003726
 40
0.6214864979190168
 40
0.7268808125404137
 40
0.8182687157727473
 40
0.8939620144270488
 40
0.9698304221395909
 40
0.9999999999999999
 40
0.9999999999999999
 40
0.9999999999999999
 40
0.9999999999999999
 10
850.610724522457
 20
879.0313787698757
 30
0.0
 10
850.5775605268717
 20
879.0317814167522
 30
0.0
 10
849.5395249955887
 20
879.0443842939685
 30
0.0
 10
847.4909883310478
 20
878.8836466837284
 30
0.0
 10
844.5513081987519
 20
878.148122502871
 30
0.0
 10
841.7716919916132
 20
876.9384783807823
 30
0.0
 10
839.5289852682515
 20
875.4454723529834
 30
0.0
 10
837.8471780657111
 20
873.8176085426496
 30
0.0
 10
836.3956314347115
 20
871.8753556679645
 30
0.0
 10
835.2415920674482
 20
869.207886365613
 30
0.0
 10
835.1417903030878
 20
865.9832877533966
 30
0.0
 10
836.0878102376333
 20
863.2624568370114
 30
0.0
 10
837.4396744760644
 20
861.111658198849
 30
0.0
 10
838.6751634136743
 20
859.6691386790898
 30
0.0
 10
839.4674126088646
 20
858.8998456082434
 30
0.0
 10
839.6928207364331
 20
858.680968881446
 30
0.0
  0
LINE
  5
180
330
1F
100
AcDbEntity
  8
0
  6
Continuous
 62
     8
370
    18
100
AcDbLine
 10
831.1240615836
 20
849.6183256408
 30
0.0
 11
839.6928207364
 21
858.6809688814
 31
0.0
  0
SPLINE
  5
181
330
1F
100
AcDbEntity
  8
0
  6
Continuous
 62
     8
370
    18
100
AcDbSpline
210
0.0
220
0.0
230
1.0
 70
     8
 71
     3
 72
    33
 73
    29
 74
     0
 42
0.000000001
 43
0.00000001
 40
0.0
 40
0.0
 40
0.0
 40
0.0
 40
0.0420694805196967
 40
0.0843884430381631
 40
0.1054254118363578
 40
0.1478084180885791
 40
0.1908708294596765
 40
0.2346249844283184
 40
0.2566774230954382
 40
0.2919631051304075
 40
0.3274716165362364
 40
0.3636903997735284
 40
0.4001608597630004
 40
0.4308871503519157
 40
0.4617758629698897
 40
0.4929198210567781
 40
0.524414595046757
 40
0.5762252118466542
 40
0.6285929245268351
 40
0.6833701247922541
 40
0.7388451995033112
 40
0.7691720205739124
 40
0.815060367563027
 40
0.8615324906874957
 40
0.8956623911437319
 40
0.9301881902968959
 40
0.9649049432978535
 40
1.0
 40
1.0
 40
1.0
 40
1.0
 10
850.6107245224573
 20
890.8970881438581
 30
0.0
 10
851.4277540869367
 20
890.8763304072286
 30
0.0
 10
853.06665839502
 20
890.8346918356668
 30
0.0
 10
855.0945952296078
 20
890.5378743770303
 30
0.0
 10
857.0984201140075
 20
890.1121451568874
 30
0.0
 10
859.0814770742625
 20
889.5393733506228
 30
0.0
 10
861.4065652828882
 20
888.6221280911068
 30
0.0
 10
863.279842925205
 20
887.6653896773078
 30
0.0
 10
864.9460510599366
 20
886.6556177533934
 30
0.0
 10
866.4139318905322
 20
885.632823044958
 30
0.0
 10
868.0063687386952
 20
884.3212530892
 30
0.0
 10
869.5045596067185
 20
882.8672062560396
 30
0.0
 10
870.8176692673965
 20
881.3612497169353
 30
0.0
 10
871.9494381387459
 20
879.8390280129317
 30
0.0
 10
872.9152895918058
 20
878.3245326112369
 30
0.0
 10
873.7767257864747
 20
876.7287091250877
 30
0.0
 10
874.6854056617806
 20
874.7018354075635
 30
0.0
 10
875.5234646230007
 20
872.1970702475743
 30
0.0
 10
876.1322203494403
 20
869.162281713384
 30
0.0
 10
876.3505942683369
 20
866.0083113372242
 30
0.0
 10
876.1784786189276
 20
863.2934795404223
 30
0.0
 10
875.7637824549028
 20
860.8023691601766
 30
0.0
 10
875.1742687701175
 20
858.5371159543722
 30
0.0
 10
874.3289729592026
 20
856.3008819836888
 30
0.0
 10
873.387688284943
 20
854.3608978217318
 30
0.0
 10
872.4174076616147
 20
852.7005129252871
 30
0.0
 10
871.3289839201692
 20
851.104741907637
 30
0.0
 10
870.5094000305546
 20
850.1155844471809
 30
0.0
 10
870.0973874613275
 20
849.6183256408316
 30
0.0
  0
LINE
  5
182
330
1F
100
AcDbEntity
  8
0
  6
Continuous
 62
     8
370
    18
100
AcDbLine
 10
870.0973874613
 20
849.6183256408
 30
0.0
 11
861.5286283085
 21
858.6809688814
 31
0.0
  0
SPLINE
  5
183
330
1F
100
AcDbEntity
  8
0
  6
Continuous
 62
     8
370
    18
100
AcDbSpline
210
0.0
220
0.0
230
1.0
 70
     8
 71
     3
 72
    19
 73
    15
 74
     0
 42
0.000000001
 43
0.00000001
 40
0.0
 40
0.0
 40
0.0
 40
0.0
 40
0.072311935304666
 40
0.1445206361806469
 40
0.2538055534572533
 40
0.3457400466261744
 40
0.4376020288244566
 40
0.5576187311953639
 40
0.6329165099067147
 40
0.7083141187347103
 40
0.8053610917388583
 40
0.9023999691423428
 40
0.996814425143269
 40
0.9999999999999999
 40
0.9999999999999999
 40
0.9999999999999999
 40
0.9999999999999999
 10
861.5286283084762
 20
858.680968881446
 30
0.0
 10
862.0612494029953
 20
859.2145421421188
 30
0.0
 10
863.1257312080915
 20
860.280926920185
 30
0.0
 10
864.6885431324952
 20
862.421829476151
 30
0.0
 10
865.8898560497769
 20
865.0587673233163
 30
0.0
 10
866.1095835141433
 20
868.167209831224
 30
0.0
 10
865.2300249873553
 20
871.2596047793983
 30
0.0
 10
863.5100037950931
 20
873.7775969892042
 30
0.0
 10
861.3933116519453
 20
875.6563004629685
 30
0.0
 10
859.2068093753396
 20
877.0426248769442
 30
0.0
 10
856.6197792786337
 20
878.1632721949674
 30
0.0
 10
853.6920983626467
 20
878.8925211378706
 30
0.0
 10
851.6599689275608
 20
879.044095183543
 30
0.0
 10
850.6438884506963
 20
879.0317807031415
 30
0.0
 10
850.610724522457
 20
879.0313787698757
 30
0.0
  0
SPLINE
  5
184
330
1F
100
AcDbEntity
  8
0
  6
Continuous
 62
     8
370
    18
100
AcDbSpline
210
0.0
220
0.0
230
1.0
 70
     8
 71
     3
 72
     9
 73
     5
 74
     0
 42
0.000000001
 43
0.00000001
 40
0.0
 40
0.0
 40
0.0
 40
0.0
 40
0.5770474436019425
 40
1.0
 40
1.0
 40
1.0
 40
1.0
 10
837.2571935611602
 20
844.3910798506885
 30
0.0
 10
835.9971431679821
 20
845.2458760153482
 30
0.0
 10
833.8135265396633
 20
846.7272033726344
 30
0.0
 10
831.9234670686092
 20
848.7589803670239
 30
0.0
 10
831.1240615835824
 20
849.6183256408316
 30
0.0
  0
SPLINE
  5
185
330
1F
100
AcDbEntity
  8
0
  6
Continuous
 62
     8
370
    18
100
AcDbSpline
210
0.0
220
0.0
230
1.0
 70
     8
 71
     3
 72
    10
 73
     6
 74
     0
 42
0.000000001
 43
0.00000001
 40
0.0
 40
0.0
 40
0.0
 40
0.0
 40
0.2479681796226273
 40
0.497268806987846
 40
1.0
 40
1.0
 40
1.0
 40
1.0
 10
839.6928207364331
 20
858.680968881446
 30
0.0
 10
840.0375208842099
 20
858.3744743114838
 30
0.0
 10
840.7287734131206
 20
857.7598382344461
 30
0.0
 10
842.2257802719373
 20
856.6537680163428
 30
0.0
 10
843.4013227870466
 20
855.8963169480633
 30
0.0
 10
844.187169708738
 20
855.3899630028092
 30
0.0
  0
LINE
  5
186
330
1F
100
AcDbEntity
  8
0
  6
Continuous
 62
     8
370
    18
100
AcDbLine
 10
844.1871697087
 20
855.3899630028
 30
0.0
 11
837.2571935612
 21
844.3910798507
 31
0.0
  0
ARC
  5
187
330
1F
100
AcDbEntity
  8
0
  6
Continuous
 62
     8
370
    18
100
AcDbCircle
 10
850.6107245225
 20
865.5850816169
 30
0.0
 40
12.05000000000018
100
AcDbArc
 50
237.7865374201
 51
302.2134625799
  0
LINE
  5
188
330
1F
100
AcDbEntity
  8
0
  6
Continuous
 62
     8
370
    18
100
AcDbLine
 10
857.0342793362
 20
855.3899630028
 30
0.0
 11
863.9642554837
 21
844.3910798507
 31
0.0
  0
SPLINE
  5
189
330
1F
100
AcDbEntity
  8
0
  6
Continuous
 62
     8
370
    18
100
AcDbSpline
210
0.0
220
0.0
230
1.0
 70
     8
 71
     3
 72
    10
 73
     6
 74
     0
 42
0.000000001
 43
0.00000001
 40
0.0
 40
0.0
 40
0.0
 40
0.0
 40
0.351467034588832
 40
0.7035972473579518
 40
1.0
 40
1.0
 40
1.0
 40
1.0
 10
857.0342793361714
 20
855.3899630028092
 30
0.0
 10
857.5841669413654
 20
855.7427980146794
 30
0.0
 10
858.684979726904
 20
856.4491337978168
 30
0.0
 10
860.207953862931
 20
857.5207691018377
 30
0.0
 10
861.1143656940732
 20
858.3170431648915
 30
0.0
 10
861.5286283084762
 20
858.680968881446
 30
0.0
  0
SPLINE
  5
18A
330
1F
100
AcDbEntity
  8
0
  6
Continuous
 62
     8
370
    18
100
AcDbSpline
210
0.0
220
0.0
230
1.0
 70
     8
 71
     3
 72
     9
 73
     5
 74
     0
 42
0.000000001
 43
0.00000001
 40
0.0
 40
0.0
 40
0.0
 40
0.0
 40
0.349026181181836
 40
1.0
 40
1.0
 40
1.0
 40
1.0
 10
870.0973874613275
 20
849.6183256408316
 30
0.0
 10
869.441801503309
 20
848.9041828139068
 30
0.0
 10
867.5634726174969
 20
846.8580817893172
 30
0.0
 10
865.3834155549789
 20
845.363811007728
 30
0.0
 10
863.96425548375
 20
844.3910798506885
 30
0.0
  0
SPLINE
  5
18B
330
1F
100
AcDbEntity
  8
0
  6
Continuous
 62
     8
370
    18
100
AcDbSpline
210
0.0
220
0.0
230
1.0
 70
     8
 71
     3
 72
    18
 73
    14
 74
     0
 42
0.000000001
 43
0.00000001
 40
0.0
 40
0.0
 40
0.0
 40
0.0
 40
0.098797079938329
 40
0.2002031521159864
 40
0.3040525078882613
 40
0.412084587779246
 40
0.5047740734780941
 40
0.6005377868034545
 40
0.6921670882566425
 40
0.7863356247216283
 40
0.8914320327008247
 40
0.9999986785287139
 40
1.0
 40
1.0
 40
1.0
 40
1.0
 10
829.1188111438497
 20
848.8616356290308
 30
0.0
 10
828.2309697526701
 20
849.949914629379
 30
0.0
 10
826.4318412237287
 20
852.1552114497647
 30
0.0
 10
824.4027472330431
 20
856.0818688746533
 30
0.0
 10
822.9886342802771
 20
860.4883214471347
 30
0.0
 10
822.4376843939884
 20
865.0422036293926
 30
0.0
 10
822.6990341230121
 20
869.5300329768687
 30
0.0
 10
823.6525808965785
 20
873.6832710125011
 30
0.0
 10
825.264930539946
 20
877.6422531196474
 30
0.0
 10
827.5564307688413
 20
881.4051467561684
 30
0.0
 10
830.6078624616634
 20
884.9107386037368
 30
0.0
 10
833.1220562373311
 20
886.9254773569137
 30
0.0
 10
834.4785642049817
 20
887.8225101153417
 30
0.0
 10
834.4785807161716
 20
887.8225210338755
 30
0.0
  0
SPLINE
  5
18C
330
1F
100
AcDbEntity
  8
0
  6
Continuous
 62
     8
370
    18
100
AcDbSpline
210
0.0
220
0.0
230
1.0
 70
     8
 71
     3
 72
    13
 73
     9
 74
     0
 42
0.000000001
 43
0.00000001
 40
0.0
 40
0.0
 40
0.0
 40
0.0
 40
0.0000034881331163
 40
0.2481902506141577
 40
0.5024205295387565
 40
0.7482140500399476
 40
0.9999965118668842
 40
1.0
 40
1.0
 40
1.0
 40
1.0
 10
834.4785807161716
 20
887.8225210338755
 30
0.0
 10
834.478597007234
 20
887.8225322655084
 30
0.0
 10
835.6377508517963
 20
888.6216937855279
 30
0.0
 10
838.115703295425
 20
890.0633494161124
 30
0.0
 10
842.1017960534543
 20
891.622431947586
 30
0.0
 10
846.3095838046754
 20
892.5694006390489
 30
0.0
 10
849.1672273665458
 20
892.7732673304927
 30
0.0
 10
850.6107045251496
 20
892.7667730162746
 30
0.0
 10
850.6107245224547
 20
892.7667729263052
 30
0.0
  0
ARC
  5
18D
330
1F
100
AcDbEntity
  8
0
  6
Continuous
 62
     8
370
    18
100
AcDbCircle
 10
831.2547354208
 20
846.2367053211
 30
0.0
 40
3.384144151529262
100
AcDbArc
 50
92.2129439008
 51
129.1354920666
  0
SPLINE
  5
18E
330
1F
100
AcDbEntity
  8
0
  6
Continuous
 62
     8
370
    18
100
AcDbSpline
210
0.0
220
0.0
230
1.0
 70
     8
 71
     3
 72
    13
 73
     9
 74
     0
 42
0.000000001
 43
0.00000001
 40
0.0
 40
0.0
 40
0.0
 40
0.0
 40
0.000003488132369
 40
0.2457799679353325
 40
0.4975795644761237
 40
0.7457645563596907
 40
0.9999965118676328
 40
1.0
 40
1.0
 40
1.0
 40
1.0
 10
850.6107245224547
 20
892.7667729263052
 30
0.0
 10
850.6107445197598
 20
892.7667730162746
 30
0.0
 10
852.0197899649638
 20
892.7731124199191
 30
0.0
 10
854.877025491243
 20
892.5745141220459
 30
0.0
 10
859.0539900163785
 20
891.642444952858
 30
0.0
 10
863.0740003729577
 20
890.0786050443363
 30
0.0
 10
865.5554643212716
 20
888.6411592119989
 30
0.0
 10
866.7428520376752
 20
887.822532265508
 30
0.0
 10
866.7428683287378
 20
887.8225210338753
 30
0.0
  0
SPLINE
  5
18F
330
1F
100
AcDbEntity
  8
0
  6
Continuous
 62
     8
370
    18
100
AcDbSpline
210
0.0
220
0.0
230
1.0
 70
     8
 71
     3
 72
    19
 73
    15
 74
     0
 42
0.000000001
 43
0.00000001
 40
0.0
 40
0.0
 40
0.0
 40
0.0
 40
0.0000013213841023
 40
0.0176852170218708
 40
0.1143733902378676
 40
0.2137145610419427
 40
0.3053523452007535
 40
0.3995000333270485
 40
0.4922123793434069
 40
0.5879403428335892
 40
0.6917200092822504
 40
0.799809001671274
 40
0.8985189583178741
 40
1.0
 40
1.0
 40
1.0
 40
1.0
 10
866.7428683287378
 20
887.8225210338753
 30
0.0
 10
866.7428848399279
 20
887.8225101153413
 30
0.0
 10
866.9638682614772
 20
887.6763780070411
 30
0.0
 10
868.3788686547746
 20
886.7101347252612
 30
0.0
 10
870.850554326186
 20
884.6484808023346
 30
0.0
 10
873.685456799967
 20
881.359552420799
 30
0.0
 10
875.9388964980021
 20
877.6772188800574
 30
0.0
 10
877.5427731844906
 20
873.7631905734925
 30
0.0
 10
878.5156250975452
 20
869.5771243732328
 30
0.0
 10
878.7853143900833
 20
865.1515833392917
 30
0.0
 10
878.2468363668605
 20
860.5523386560868
 30
0.0
 10
876.8590195803266
 20
856.1741831972574
 30
0.0
 10
874.8107717641172
 20
852.1885770496074
 30
0.0
 10
873.0136412722304
 20
849.9808029239628
 30
0.0
 10
872.1026379010603
 20
848.861635629031
 30
0.0
  0
ARC
  5
190
330
1F
100
AcDbEntity
  8
0
  6
Continuous
 62
     8
370
    18
100
AcDbCircle
 10
869.9667136241
 20
846.2367053211
 30
0.0
 40
3.384144151530625
100
AcDbArc
 50
50.8645079334
 51
87.7870560992
  0
SPLINE
  5
191
330
1F
100
AcDbEntity
  8
0
  6
Continuous
 62
     8
370
    18
100
AcDbSpline
210
0.0
220
0.0
230
1.0
 70
     8
 71
     3
 72
    14
 73
    10
 74
     0
 42
0.000000001
 43
0.00000001
 40
0.0
 40
0.0
 40
0.0
 40
0.0
 40
0.0588507131428012
 40
0.1865507860318813
 40
0.3150706499745776
 40
0.5205160403891106
 40
0.7296050309949507
 40
0.9289213534635695
 40
1.0
 40
1.0
 40
1.0
 40
1.0
 10
815.0700344133127
 20
887.7443004184797
 30
0.0
 10
815.0697068837967
 20
887.022432260906
 30
0.0
 10
815.0686686484826
 20
884.7341834867586
 30
0.0
 10
815.0654979252978
 20
880.8080613004686
 30
0.0
 10
815.0640272350372
 20
875.0045887680635
 30
0.0
 10
815.0717974863263
 20
868.1352036496759
 30
0.0
 10
815.0729343758942
 20
860.4568816741789
 30
0.0
 10
815.0713951914382
 20
854.6241787390171
 30
0.0
 10
815.0713434250089
 20
851.4728368647479
 30
0.0
 10
815.0713298171827
 20
850.6444445465742
 30
0.0
  0
ARC
  5
192
330
1F
100
AcDbEntity
  8
0
  6
Continuous
 62
     8
370
    18
100
AcDbCircle
 10
813.8828006863
 20
854.7262793309
 30
0.0
 40
4.251349985718233
100
AcDbArc
 50
269.1903220348
 51
286.2342508995
  0
SPLINE
  5
193
330
1F
100
AcDbEntity
  8
0
  6
Continuous
 62
     8
370
    18
100
AcDbSpline
210
0.0
220
0.0
230
1.0
 70
     8
 71
     3
 72
    14
 73
    10
 74
     0
 42
0.000000001
 43
0.00000001
 40
0.0
 40
0.0
 40
0.0
 40
0.0
 40
0.2078011624980562
 40
0.4196948388477424
 40
0.5443918098789493
 40
0.6699512654772777
 40
0.7982264655367436
 40
0.9274422558336561
 40
1.0
 40
1.0
 40
1.0
 40
1.0
 10
813.718398020254
 20
887.892914045523
 30
0.0
 10
813.6882139630782
 20
885.3055188522541
 30
0.0
 10
813.62725139261
 20
880.0797713365992
 30
0.0
 10
813.6389211514191
 20
873.1166279265126
 30
0.0
 10
813.6948965727001
 20
867.2404333336327
 30
0.0
 10
813.7494950960263
 20
862.464980666723
 30
0.0
 10
813.8000093393622
 20
857.7120915045127
 30
0.0
 10
813.8274651290405
 20
853.7049336553733
 30
0.0
 10
813.8239783734278
 20
851.3295438051514
 30
0.0
 10
813.8227245364349
 20
850.4753538366492
 30
0.0
  0
ARC
  5
194
330
1F
100
AcDbEntity
  8
0
  6
Continuous
 62
     8
370
    18
100
AcDbCircle
 10
813.7187008569
 20
881.6748156922
 30
0.0
 40
6.218098360740603
100
AcDbArc
 50
77.4481726938
 51
90.0027904447
  0
SPLINE
  5
195
330
1F
100
AcDbEntity
  8
0
  6
Continuous
 62
     8
370
    18
100
AcDbSpline
210
0.0
220
0.0
230
1.0
 70
     8
 71
     3
 72
    14
 73
    10
 74
     0
 42
0.000000001
 43
0.00000001
 40
0.0
 40
0.0
 40
0.0
 40
0.0
 40
0.0706469358108942
 40
0.2691496022583828
 40
0.4748299235320673
 40
0.684124035685351
 40
0.8123563766451415
 40
0.9412272031615689
 40
1.0
 40
1.0
 40
1.0
 40
1.0
 10
816.9613317059923
 20
850.9142375983416
 30
0.0
 10
816.9598553523731
 20
851.7266364684193
 30
0.0
 10
816.9542307632121
 20
854.8217011056439
 30
0.0
 10
817.0330580617799
 20
860.545050380614
 30
0.0
 10
817.1587730835394
 20
868.1342444733771
 30
0.0
 10
817.2199189981352
 20
874.9155888892177
 30
0.0
 10
817.1976793062609
 20
880.704559795158
 30
0.0
 10
817.1519438969373
 20
884.5979284138093
 30
0.0
 10
817.1165483687839
 20
886.8778085357814
 30
0.0
 10
817.105461958556
 20
887.5919011802791
 30
0.0
  0
ARC
  5
196
330
1F
100
AcDbEntity
  8
0
  6
Continuous
 62
     8
370
    18
100
AcDbCircle
 10
816.9002520442
 20
844.5871397433
 30
0.0
 40
6.32739266938404
100
AcDbArc
 50
89.4469031132
 51
106.8009889676
  0
ARC
  5
197
330
1F
100
AcDbEntity
  8
0
  6
Continuous
 62
     8
370
    18
100
AcDbCircle
 10
816.8439506026
 20
897.7678575095
 30
0.0
 40
10.17931605777201
100
AcDbArc
 50
259.9640104619
 51
271.4721171423
  0
SPLINE
  5
198
330
1F
100
AcDbEntity
  8
0
  6
Continuous
 62
     8
370
    18
100
AcDbSpline
210
0.0
220
0.0
230
1.0
 70
     8
 71
     3
 72
    14
 73
    10
 74
     0
 42
0.000000001
 43
0.00000001
 40
0.0
 40
0.0
 40
0.0
 40
0.0
 40
0.2078011624980603
 40
0.4196948388477504
 40
0.5443918098789597
 40
0.6699512654772896
 40
0.7982264655367501
 40
0.9274422558336542
 40
1.0
 40
1.0
 40
1.0
 40
1.0
 10
887.5030510246556
 20
887.8929140455225
 30
0.0
 10
887.533235081831
 20
885.3055188522535
 30
0.0
 10
887.5941976522986
 20
880.0797713365986
 30
0.0
 10
887.5825278934894
 20
873.1166279265119
 30
0.0
 10
887.5265524722091
 20
867.2404333336322
 30
0.0
 10
887.471953948882
 20
862.4649806667222
 30
0.0
 10
887.4214397055482
 20
857.7120915045125
 30
0.0
 10
887.3939839158695
 20
853.7049336553731
 30
0.0
 10
887.3974706714822
 20
851.3295438051514
 30
0.0
 10
887.3987245084752
 20
850.4753538366492
 30
0.0
  0
ARC
  5
199
330
1F
100
AcDbEntity
  8
0
  6
Continuous
 62
     8
370
    18
100
AcDbCircle
 10
887.3386483586
 20
854.7262793309
 30
0.0
 40
4.251349985719592
100
AcDbArc
 50
253.7657491005
 51
270.8096779652
  0
SPLINE
  5
19A
330
1F
100
AcDbEntity
  8
0
  6
Continuous
 62
     8
370
    18
100
AcDbSpline
210
0.0
220
0.0
230
1.0
 70
     8
 71
     3
 72
    14
 73
    10
 74
     0
 42
0.000000001
 43
0.00000001
 40
0.0
 40
0.0
 40
0.0
 40
0.0
 40
0.0588507131428023
 40
0.1865507860318847
 40
0.3150706499745834
 40
0.52051604038912
 40
0.7296050309949643
 40
0.9289213534635677
 40
1.0
 40
1.0
 40
1.0
 40
1.0
 10
886.1514146315967
 20
887.744300418479
 30
0.0
 10
886.1517421611127
 20
887.0224322609055
 30
0.0
 10
886.1527803964268
 20
884.734183486758
 30
0.0
 10
886.1559511196108
 20
880.808061300468
 30
0.0
 10
886.1574218098718
 20
875.0045887680628
 30
0.0
 10
886.149651558582
 20
868.1352036496752
 30
0.0
 10
886.1485146690163
 20
860.4568816741784
 30
0.0
 10
886.150053853472
 20
854.624178739017
 30
0.0
 10
886.1501056199013
 20
851.4728368647482
 30
0.0
 10
886.1501192277274
 20
850.6444445465742
 30
0.0
  0
ARC
  5
19B
330
1F
100
AcDbEntity
  8
0
  6
Continuous
 62
     8
370
    18
100
AcDbCircle
 10
887.502748188
 20
881.6748156921
 30
0.0
 40
6.218098360756645
100
AcDbArc
 50
89.9972095553
 51
102.5518273062
  0
ARC
  5
19C
330
1F
100
AcDbEntity
  8
0
  6
Continuous
 62
     8
370
    18
100
AcDbCircle
 10
884.3211970007
 20
844.5871397433
 30
0.0
 40
6.327392669384726
100
AcDbArc
 50
73.1990110324
 51
90.5530968868
  0
SPLINE
  5
19D
330
1F
100
AcDbEntity
  8
0
  6
Continuous
 62
     8
370
    18
100
AcDbSpline
210
0.0
220
0.0
230
1.0
 70
     8
 71
     3
 72
    14
 73
    10
 74
     0
 42
0.000000001
 43
0.00000001
 40
0.0
 40
0.0
 40
0.0
 40
0.0
 40
0.0706469358108948
 40
0.2691496022583689
 40
0.4748299235320581
 40
0.6841240356853452
 40
0.812356376645138
 40
0.9412272031615683
 40
1.0
 40
1.0
 40
1.0
 40
1.0
 10
884.2601173389177
 20
850.9142375983416
 30
0.0
 10
884.261593692537
 20
851.7266364684193
 30
0.0
 10
884.2672182816981
 20
854.8217011056437
 30
0.0
 10
884.1883909831304
 20
860.5450503806136
 30
0.0
 10
884.06267596137
 20
868.1342444733764
 30
0.0
 10
884.0015300467741
 20
874.9155888892171
 30
0.0
 10
884.0237697386486
 20
880.7045597951574
 30
0.0
 10
884.0695051479718
 20
884.5979284138087
 30
0.0
 10
884.1049006761259
 20
886.8778085357807
 30
0.0
 10
884.1159870863539
 20
887.5919011802783
 30
0.0
  0
ARC
  5
19E
330
1F
100
AcDbEntity
  8
0
  6
Continuous
 62
     8
370
    18
100
AcDbCircle
 10
884.3774984423
 20
897.7678575095
 30
0.0
 40
10.17931605778716
100
AcDbArc
 50
268.5278828577
 51
280.035989538
  0
SPLINE
  5
19F
330
1F
100
AcDbEntity
  8
0
  6
Continuous
 62
     8
370
    18
100
AcDbSpline
210
0.0
220
0.0
230
1.0
 70
     8
 71
     3
 72
    14
 73
    10
 74
     0
 42
0.000000001
 43
0.00000001
 40
0.0
 40
0.0
 40
0.0
 40
0.0
 40
0.1272473860604718
 40
0.2554745767697396
 40
0.3810919869018191
 40
0.5075916090131556
 40
0.7089607368256291
 40
0.9137762176246998
 40
1.0
 40
1.0
 40
1.0
 40
1.0
 10
806.1371237105424
 20
850.6764254633582
 30
0.0
 10
806.1356786725632
 20
852.1663348272889
 30
0.0
 10
806.132777469815
 20
855.1576258546313
 30
0.0
 10
806.1364791043127
 20
859.7963884659233
 30
0.0
 10
806.1421329060262
 20
864.5079644594024
 30
0.0
 10
806.1506815909571
 20
870.1995947853904
 30
0.0
 10
806.1591910777371
 20
876.9316619126863
 30
0.0
 10
806.1525613016954
 20
883.1144648388859
 30
0.0
 10
806.1476201014952
 20
886.683741752108
 30
0.0
 10
806.1461562132002
 20
887.7411817430086
 30
0.0
  0
ARC
  5
1A0
330
1F
100
AcDbEntity
  8
0
  6
Continuous
 62
     8
370
    18
100
AcDbCircle
 10
807.49843465
 20
881.7960966889
 30
0.0
 40
6.09694130460523
100
AcDbArc
 50
89.6346559708
 51
102.8145546266
  0
SPLINE
  5
1A1
330
1F
100
AcDbEntity
  8
0
  6
Continuous
 62
     8
370
    18
100
AcDbSpline
210
0.0
220
0.0
230
1.0
 70
     8
 71
     3
 72
    14
 73
    10
 74
     0
 42
0.000000001
 43
0.00000001
 40
0.0
 40
0.0
 40
0.0
 40
0.0
 40
0.12969690086605
 40
0.2603671951156624
 40
0.3853421446376495
 40
0.5111847557259611
 40
0.6397642884787726
 40
0.7692911603858882
 40
1.0
 40
1.0
 40
1.0
 40
1.0
 10
807.4797220430157
 20
850.47535383665
 30
0.0
 10
807.4786155424841
 20
852.0094048205978
 30
0.0
 10
807.4763942369794
 20
855.0890200557175
 30
0.0
 10
807.5017570438974
 20
859.8248834470859
 30
0.0
 10
807.5325311712377
 20
864.5962225185106
 30
0.0
 10
807.562849022879
 20
869.4053692059683
 30
0.0
 10
807.5849053951875
 20
874.296749460867
 30
0.0
 10
807.5861702484522
 20
880.5257758728842
 30
0.0
 10
807.556386150547
 20
885.0167323533137
 30
0.0
 10
807.5373112658343
 20
887.892914045523
 30
0.0
  0
ARC
  5
1A2
330
1F
100
AcDbEntity
  8
0
  6
Continuous
 62
     8
370
    18
100
AcDbCircle
 10
807.4088043949
 20
854.5847656822
 30
0.0
 40
4.110023726140915
100
AcDbArc
 50
251.9763477958
 51
270.9886764295
  0
ARC
  5
1A3
330
1F
100
AcDbEntity
  8
0
  6
Continuous
 62
     8
370
    18
100
AcDbCircle
 10
804.2260200115
 20
844.9052222996
 30
0.0
 40
6.079399913264899
100
AcDbArc
 50
71.6779814803
 51
90.2649234322
  0
SPLINE
  5
1A4
330
1F
100
AcDbEntity
  8
0
  6
Continuous
 62
     8
370
    18
100
AcDbSpline
210
0.0
220
0.0
230
1.0
 70
     8
 71
     3
 72
    15
 73
    11
 74
     0
 42
0.000000001
 43
0.00000001
 40
0.0
 40
0.0
 40
0.0
 40
0.0
 40
0.1214527241786875
 40
0.2436356162157024
 40
0.3679634748124441
 40
0.492999645184968
 40
0.618586543380512
 40
0.7450337263104021
 40
0.8719902588119044
 40
1.0
 40
1.0
 40
1.0
 40
1.0
 10
804.0966331372616
 20
887.5480433504722
 30
0.0
 10
804.0794214755792
 20
886.0746565955313
 30
0.0
 10
804.0448946765431
 20
883.1190251562898
 30
0.0
 10
804.0130159278665
 20
878.5740711620548
 30
0.0
 10
804.0156176704149
 20
873.9603399542641
 30
0.0
 10
804.0481874722786
 20
869.2962319750666
 30
0.0
 10
804.0969682504964
 20
864.6272123257445
 30
0.0
 10
804.1495810902676
 20
859.9921877765133
 30
0.0
 10
804.1931860450655
 20
855.4066813262052
 30
0.0
 10
804.1963311954107
 20
852.4626523013852
 30
0.0
 10
804.1979102665399
 20
850.9845572260488
 30
0.0
  0
ARC
  5
1A5
330
1F
100
AcDbEntity
  8
0
  6
Continuous
 62
     8
370
    18
100
AcDbCircle
 10
804.237892266
 20
897.0200585762
 30
0.0
 40
9.47306848801914
100
AcDbArc
 50
269.1455934393
 51
281.6212347178
  0
SPLINE
  5
1A6
330
1F
100
AcDbEntity
  8
0
  6
Continuous
 62
     8
370
    18
100
AcDbSpline
210
0.0
220
0.0
230
1.0
 70
     8
 71
     3
 72
    15
 73
    11
 74
     0
 42
0.000000001
 43
0.00000001
 40
0.0
 40
0.0
 40
0.0
 40
0.0
 40
0.1214527241786883
 40
0.2436356162157036
 40
0.367963474812445
 40
0.4929996451849684
 40
0.6185865433805127
 40
0.745033726310402
 40
0.8719902588119042
 40
1.0
 40
1.0
 40
1.0
 40
1.0
 10
897.1248159076478
 20
887.5480433504716
 30
0.0
 10
897.1420275693303
 20
886.0746565955308
 30
0.0
 10
897.1765543683664
 20
883.1190251562891
 30
0.0
 10
897.208433117043
 20
878.5740711620542
 30
0.0
 10
897.2058313744944
 20
873.9603399542634
 30
0.0
 10
897.173261572631
 20
869.296231975066
 30
0.0
 10
897.1244807944128
 20
864.6272123257439
 30
0.0
 10
897.0718679546427
 20
859.9921877765128
 30
0.0
 10
897.0282629998445
 20
855.4066813262045
 30
0.0
 10
897.0251178494993
 20
852.4626523013845
 30
0.0
 10
897.0235387783703
 20
850.9845572260481
 30
0.0
  0
ARC
  5
1A7
330
1F
100
AcDbEntity
  8
0
  6
Continuous
 62
     8
370
    18
100
AcDbCircle
 10
896.9954290334
 20
844.9052222996
 30
0.0
 40
6.079399913264468
100
AcDbArc
 50
89.7350765678
 51
108.3220185197
  0
SPLINE
  5
1A8
330
1F
100
AcDbEntity
  8
0
  6
Continuous
 62
     8
370
    18
100
AcDbSpline
210
0.0
220
0.0
230
1.0
 70
     8
 71
     3
 72
    14
 73
    10
 74
     0
 42
0.000000001
 43
0.00000001
 40
0.0
 40
0.0
 40
0.0
 40
0.0
 40
0.1272473860604718
 40
0.2554745767697393
 40
0.3810919869018191
 40
0.5075916090131555
 40
0.7089607368256288
 40
0.9137762176247
 40
1.0
 40
1.0
 40
1.0
 40
1.0
 10
895.0843253343678
 20
850.6764254633575
 30
0.0
 10
895.0857703723469
 20
852.1663348272881
 30
0.0
 10
895.088671575095
 20
855.1576258546306
 30
0.0
 10
895.0849699405978
 20
859.7963884659226
 30
0.0
 10
895.0793161388823
 20
864.5079644594017
 30
0.0
 10
895.0707674539519
 20
870.1995947853898
 30
0.0
 10
895.0622579671715
 20
876.9316619126856
 30
0.0
 10
895.0688877432141
 20
883.1144648388852
 30
0.0
 10
895.0738289434144
 20
886.6837417521073
 30
0.0
 10
895.0752928317092
 20
887.741181743008
 30
0.0
  0
ARC
  5
1A9
330
1F
100
AcDbEntity
  8
0
  6
Continuous
 62
     8
370
    18
100
AcDbCircle
 10
896.983556779
 20
897.0200585763
 30
0.0
 40
9.47306848803253
100
AcDbArc
 50
258.3787652822
 51
270.8544065606
  0
SPLINE
  5
1AA
330
1F
100
AcDbEntity
  8
0
  6
Continuous
 62
     8
370
    18
100
AcDbSpline
210
0.0
220
0.0
230
1.0
 70
     8
 71
     3
 72
    14
 73
    10
 74
     0
 42
0.000000001
 43
0.00000001
 40
0.0
 40
0.0
 40
0.0
 40
0.0
 40
0.1296969008660503
 40
0.2603671951156624
 40
0.3853421446376501
 40
0.5111847557259613
 40
0.6397642884787726
 40
0.7692911603858882
 40
1.0
 40
1.0
 40
1.0
 40
1.0
 10
893.7417270018942
 20
850.4753538366492
 30
0.0
 10
893.7428335024259
 20
852.009404820597
 30
0.0
 10
893.7450548079305
 20
855.0890200557168
 30
0.0
 10
893.7196920010131
 20
859.8248834470853
 30
0.0
 10
893.6889178736708
 20
864.59622251851
 30
0.0
 10
893.6586000220298
 20
869.4053692059676
 30
0.0
 10
893.6365436497214
 20
874.2967494608664
 30
0.0
 10
893.6352787964564
 20
880.5257758728836
 30
0.0
 10
893.6650628943621
 20
885.016732353313
 30
0.0
 10
893.6841377790751
 20
887.8929140455225
 30
0.0
  0
ARC
  5
1AB
330
1F
100
AcDbEntity
  8
0
  6
Continuous
 62
     8
370
    18
100
AcDbCircle
 10
893.7230143949
 20
881.7960966888
 30
0.0
 40
6.096941304635787
100
AcDbArc
 50
77.1854453734
 51
90.3653440292
  0
ARC
  5
1AC
330
1F
100
AcDbEntity
  8
0
  6
Continuous
 62
     8
370
    18
100
AcDbCircle
 10
893.81264465
 20
854.5847656822
 30
0.0
 40
4.110023726150585
100
AcDbArc
 50
269.0113235705
 51
288.0236522041
  0
LINE
  5
1AD
330
1F
100
AcDbEntity
  8
0
  6
Continuous
 62
     8
370
    18
100
AcDbLine
 10
813.8227245364
 20
850.4753538366
 30
0.0
 11
807.479722043
 21
850.4753538367
 31
0.0
  0
LINE
  5
1AE
330
1F
100
AcDbEntity
  8
0
  6
Continuous
 62
     8
370
    18
100
AcDbLine
 10
813.7183980203
 20
887.8929140455
 30
0.0
 11
807.5373112658
 21
887.8929140455
 31
0.0
  0
LINE
  5
1AF
330
1F
100
AcDbEntity
  8
0
  6
Continuous
 62
     8
370
    18
100
AcDbLine
 10
887.3987245085
 20
850.4753538366
 30
0.0
 11
893.7417270019
 21
850.4753538366
 31
0.0
  0
LINE
  5
1B0
330
1F
100
AcDbEntity
  8
0
  6
Continuous
 62
     8
370
    18
100
AcDbLine
 10
887.5030510247
 20
887.8929140455
 30
0.0
 11
893.6841377791
 21
887.8929140455
 31
0.0
  0
LINE
  5
1B1
330
1F
100
AcDbEntity
  8
0
  6
Continuous
 62
     8
370
    18
100
AcDbLine
 10
816.8789121142
 20
848.8568315682
 30
0.0
 11
816.961331706
 21
850.9142375983
 31
0.0
  0
SPLINE
  5
1B2
330
1F
100
AcDbEntity
  8
0
  6
Continuous
 62
     8
370
    18
100
AcDbSpline
210
0.0
220
0.0
230
1.0
 70
     8
 71
     3
 72
     9
 73
     5
 74
     0
 42
0.000000001
 43
0.00000001
 40
0.0
 40
0.0
 40
0.0
 40
0.0
 40
0.8892351459142923
 40
1.0
 40
1.0
 40
1.0
 40
1.0
 10
817.105461958556
 20
887.5919011802791
 30
0.0
 10
817.0563994519373
 20
890.8188895366306
 30
0.0
 10
817.0012256243572
 20
894.4478378200834
 30
0.0
 10
816.9892526762179
 20
897.9944228698332
 30
0.0
 10
816.9879264943643
 20
898.3872598453714
 30
0.0
  0
SPLINE
  5
1B3
330
1F
100
AcDbEntity
  8
0
  6
Continuous
 62
     8
370
    18
100
AcDbSpline
210
0.0
220
0.0
230
1.0
 70
     8
 71
     3
 72
    11
 73
     7
 74
     0
 42
0.000000001
 43
0.00000001
 40
0.0
 40
0.0
 40
0.0
 40
0.0
 40
0.5574252101166927
 40
0.8582360298869939
 40
0.9999887157360463
 40
1.0
 40
1.0
 40
1.0
 40
1.0
 10
816.9879264943643
 20
898.3872598453714
 30
0.0
 10
816.946566655001
 20
899.3006528259987
 30
0.0
 10
816.8828872524775
 20
900.7069522742352
 30
0.0
 10
816.2708161503634
 20
902.2452440835588
 30
0.0
 10
815.7969634507426
 20
902.812075721002
 30
0.0
 10
815.6207290015491
 20
902.9696526306986
 30
0.0
 10
815.620714973471
 20
902.969665173656
 30
0.0
  0
SPLINE
  5
1B4
330
1F
100
AcDbEntity
  8
0
  6
Continuous
 62
     8
370
    18
100
AcDbSpline
210
0.0
220
0.0
230
1.0
 70
     8
 71
     3
 72
    11
 73
     7
 74
     0
 42
0.000000001
 43
0.00000001
 40
0.0
 40
0.0
 40
0.0
 40
0.0
 40
0.0000403578895606
 40
0.1670896913903651
 40
0.6133765181116563
 40
1.0
 40
1.0
 40
1.0
 40
1.0
 10
815.620714973471
 20
902.969665173656
 30
0.0
 10
815.620697900396
 20
902.9696747907772
 30
0.0
 10
815.5500119733482
 20
903.0094915855844
 30
0.0
 10
815.2854345977702
 20
903.1462238284142
 30
0.0
 10
814.8197028017885
 20
903.3174137779125
 30
0.0
 10
814.4065310150692
 20
903.3463332323737
 30
0.0
 10
814.2147433602062
 20
903.3597571749789
 30
0.0
  0
LINE
  5
1B5
330
1F
100
AcDbEntity
  8
0
  6
Continuous
 62
     8
370
    18
100
AcDbLine
 10
814.2147433602
 20
903.359757175
 30
0.0
 11
807.1083524969
 21
903.4826780951
 31
0.0
  0
SPLINE
  5
1B6
330
1F
100
AcDbEntity
  8
0
  6
Continuous
 62
     8
370
    18
100
AcDbSpline
210
0.0
220
0.0
230
1.0
 70
     8
 71
     3
 72
    11
 73
     7
 74
     0
 42
0.000000001
 43
0.00000001
 40
0.0
 40
0.0
 40
0.0
 40
0.0
 40
0.2986044395550249
 40
0.5785107697798724
 40
0.9999675635114514
 40
0.9999999999999999
 40
0.9999999999999999
 40
0.9999999999999999
 40
0.9999999999999999
 10
807.108352496914
 20
903.4826780951278
 30
0.0
 10
806.9234665708833
 20
903.4768420160274
 30
0.0
 10
806.5652719655088
 20
903.4655353033143
 30
0.0
 10
805.971964543114
 20
903.2921013550873
 30
0.0
 10
805.5965928645501
 20
903.0863964502632
 30
0.0
 10
805.3877079052224
 20
902.941162398305
 30
0.0
 10
805.3876918300915
 20
902.9411512215481
 30
0.0
  0
SPLINE
  5
1B7
330
1F
100
AcDbEntity
  8
0
  6
Continuous
 62
     8
370
    18
100
AcDbSpline
210
0.0
220
0.0
230
1.0
 70
     8
 71
     3
 72
    12
 73
     8
 74
     0
 42
0.000000001
 43
0.00000001
 40
0.0
 40
0.0
 40
0.0
 40
0.0
 40
0.0000113964157658
 40
0.0165615426249112
 40
0.2254762501766455
 40
0.6569695733823875
 40
1.0
 40
1.0
 40
1.0
 40
1.0
 10
805.3876918300915
 20
902.9411512215481
 30
0.0
 10
805.3876790486095
 20
902.941137412893
 30
0.0
 10
805.3691046947966
 20
902.9210703466714
 30
0.0
 10
805.1204945268463
 20
902.6443713677016
 30
0.0
 10
804.5685346026766
 20
901.7081356732501
 30
0.0
 10
804.2363412847942
 20
900.1331546262314
 30
0.0
 10
804.1972166482606
 20
898.8813902714564
 30
0.0
 10
804.1798886570085
 20
898.3269937655507
 30
0.0
  0
SPLINE
  5
1B8
330
1F
100
AcDbEntity
  8
0
  6
Continuous
 62
     8
370
    18
100
AcDbSpline
210
0.0
220
0.0
230
1.0
 70
     8
 71
     3
 72
    10
 73
     6
 74
     0
 42
0.000000001
 43
0.00000001
 40
0.0
 40
0.0
 40
0.0
 40
0.0
 40
0.0305940752880727
 40
0.8849546452569853
 40
1.0
 40
1.0
 40
1.0
 40
1.0
 10
804.1798886570085
 20
898.3269937655507
 30
0.0
 10
804.1796765200128
 20
898.2185555233744
 30
0.0
 10
804.1735403116761
 20
895.0819048734148
 30
0.0
 10
804.1330947434325
 20
891.4841184099789
 30
0.0
 10
804.1005012118316
 20
887.9656067395289
 30
0.0
 10
804.0966331372616
 20
887.5480433504722
 30
0.0
  0
LINE
  5
1B9
330
1F
100
AcDbEntity
  8
0
  6
Continuous
 62
     8
370
    18
100
AcDbLine
 10
804.1979102665
 20
850.984557226
 30
0.0
 11
804.2691074903
 21
848.9813231806
 31
0.0
  0
SPLINE
  5
1BA
330
1F
100
AcDbEntity
  8
0
  6
Continuous
 62
     8
370
    18
100
AcDbSpline
210
0.0
220
0.0
230
1.0
 70
     8
 71
     3
 72
    18
 73
    14
 74
     0
 42
0.000000001
 43
0.00000001
 40
0.0
 40
0.0
 40
0.0
 40
0.0
 40
0.0497884573626224
 40
0.1520626953526164
 40
0.2542931679105505
 40
0.3525326664709015
 40
0.4508084200367279
 40
0.5543273934134146
 40
0.6578565275353685
 40
0.7740307271289465
 40
0.8901694733964515
 40
0.9999988953086804
 40
0.9999999999999999
 40
0.9999999999999999
 40
0.9999999999999999
 40
0.9999999999999999
 10
804.2691074903249
 20
848.9813231806086
 30
0.0
 10
803.368017215221
 20
848.9969840768027
 30
0.0
 10
800.6159292163832
 20
849.0448152050009
 30
0.0
 10
796.0134988082638
 20
849.1300231740313
 30
0.0
 10
790.7127887940445
 20
849.1855941138854
 30
0.0
 10
785.8220112427033
 20
849.2499878159318
 30
0.0
 10
781.328838876903
 20
849.2750774685475
 30
0.0
 10
777.2971995288452
 20
849.263926661717
 30
0.0
 10
773.6870022407355
 20
849.217029997871
 30
0.0
 10
770.7749063952745
 20
849.13814866109
 30
0.0
 10
768.7950906609739
 20
849.0128773409281
 30
0.0
 10
768.2033843937659
 20
848.8885177500114
 30
0.0
 10
768.0909666381758
 20
848.8210888203134
 30
0.0
 10
768.0909655074616
 20
848.8210881421035
 30
0.0
  0
SPLINE
  5
1BB
330
1F
100
AcDbEntity
  8
0
  6
Continuous
 62
     8
370
    18
100
AcDbSpline
210
0.0
220
0.0
230
1.0
 70
     8
 71
     3
 72
     9
 73
     5
 74
     0
 42
0.000000001
 43
0.00000001
 40
0.0
 40
0.0
 40
0.0
 40
0.0
 40
0.0843934950201078
 40
1.0
 40
1.0
 40
1.0
 40
1.0
 10
829.1188111438497
 20
848.8616356290308
 30
0.0
 10
828.774500750529
 20
848.8598310940504
 30
0.0
 10
824.6946792756778
 20
848.8384486998267
 30
0.0
 10
820.6146309248667
 20
848.8480450695903
 30
0.0
 10
816.8789121142315
 20
848.8568315681699
 30
0.0
  0
SPLINE
  5
1BC
330
1F
100
AcDbEntity
  8
0
  6
Continuous
 62
     8
370
    18
100
AcDbSpline
210
0.0
220
0.0
230
1.0
 70
     8
 71
     3
 72
    14
 73
    10
 74
     0
 42
0.000000001
 43
0.00000001
 40
0.0
 40
0.0
 40
0.0
 40
0.0
 40
0.0834734048384979
 40
0.2523701720924958
 40
0.4264211392157438
 40
0.5891168996027681
 40
0.7559016487235024
 40
0.8772249525218105
 40
1.0
 40
1.0
 40
1.0
 40
1.0
 10
896.952341554585
 20
848.9813231806079
 30
0.0
 10
897.8533205408457
 20
848.9975557311083
 30
0.0
 10
900.5773045720981
 20
849.0466325786525
 30
0.0
 10
905.1852179431701
 20
849.1082375885691
 30
0.0
 10
910.4592071194147
 20
849.1903299476619
 30
0.0
 10
915.3841424399646
 20
849.2486878012851
 30
0.0
 10
919.4039738397511
 20
849.272496181872
 30
0.0
 10
922.7272555730511
 20
849.2686270755115
 30
0.0
 10
924.4402628677948
 20
849.2522581003553
 30
0.0
 10
925.3018604609076
 20
849.2440249365856
 30
0.0
  0
LINE
  5
1BD
330
1F
100
AcDbEntity
  8
0
  6
Continuous
 62
     8
370
    18
100
AcDbLine
 10
897.0235387784
 20
850.984557226
 30
0.0
 11
896.9523415546
 21
848.9813231806
 31
0.0
  0
SPLINE
  5
1BE
330
1F
100
AcDbEntity
  8
0
  6
Continuous
 62
     8
370
    18
100
AcDbSpline
210
0.0
220
0.0
230
1.0
 70
     8
 71
     3
 72
    10
 73
     6
 74
     0
 42
0.000000001
 43
0.00000001
 40
0.0
 40
0.0
 40
0.0
 40
0.0
 40
0.0305940752880738
 40
0.8849546452569846
 40
1.0
 40
1.0
 40
1.0
 40
1.0
 10
897.0415603879009
 20
898.32699376555
 30
0.0
 10
897.0417725248966
 20
898.2185555233739
 30
0.0
 10
897.0479087332334
 20
895.0819048734141
 30
0.0
 10
897.088354301477
 20
891.4841184099784
 30
0.0
 10
897.1209478330778
 20
887.9656067395283
 30
0.0
 10
897.1248159076478
 20
887.5480433504716
 30
0.0
  0
SPLINE
  5
1BF
330
1F
100
AcDbEntity
  8
0
  6
Continuous
 62
     8
370
    18
100
AcDbSpline
210
0.0
220
0.0
230
1.0
 70
     8
 71
     3
 72
    12
 73
     8
 74
     0
 42
0.000000001
 43
0.00000001
 40
0.0
 40
0.0
 40
0.0
 40
0.0
 40
0.000011396415791
 40
0.016561542624936
 40
0.2254762501766656
 40
0.6569695733823978
 40
1.0
 40
1.0
 40
1.0
 40
1.0
 10
895.8337572148179
 20
902.9411512215474
 30
0.0
 10
895.8337699962998
 20
902.9411374128924
 30
0.0
 10
895.8523443501516
 20
902.9210703467024
 30
0.0
 10
896.1009545178207
 20
902.6443713675039
 30
0.0
 10
896.6529144424607
 20
901.7081356734346
 30
0.0
 10
896.9851077600593
 20
900.1331546261854
 30
0.0
 10
897.0242323966318
 20
898.881390271442
 30
0.0
 10
897.0415603879009
 20
898.32699376555
 30
0.0
  0
SPLINE
  5
1C0
330
1F
100
AcDbEntity
  8
0
  6
Continuous
 62
     8
370
    18
100
AcDbSpline
210
0.0
220
0.0
230
1.0
 70
     8
 71
     3
 72
    11
 73
     7
 74
     0
 42
0.000000001
 43
0.00000001
 40
0.0
 40
0.0
 40
0.0
 40
0.0
 40
0.2986044395549584
 40
0.5785107697797435
 40
0.9999675635115338
 40
1.0
 40
1.0
 40
1.0
 40
1.0
 10
894.1130965479948
 20
903.4826780951271
 30
0.0
 10
894.2979824740311
 20
903.476842016032
 30
0.0
 10
894.6561770794164
 20
903.4655353033295
 30
0.0
 10
895.2494845017221
 20
903.2921013550153
 30
0.0
 10
895.6248561806021
 20
903.0863964504999
 30
0.0
 10
895.8337411396869
 20
902.9411623983044
 30
0.0
 10
895.8337572148179
 20
902.9411512215474
 30
0.0
  0
LINE
  5
1C1
330
1F
100
AcDbEntity
  8
0
  6
Continuous
 62
     8
370
    18
100
AcDbLine
 10
887.0067056847
 20
903.359757175
 30
0.0
 11
894.113096548
 21
903.4826780951
 31
0.0
  0
SPLINE
  5
1C2
330
1F
100
AcDbEntity
  8
0
  6
Continuous
 62
     8
370
    18
100
AcDbSpline
210
0.0
220
0.0
230
1.0
 70
     8
 71
     3
 72
    11
 73
     7
 74
     0
 42
0.000000001
 43
0.00000001
 40
0.0
 40
0.0
 40
0.0
 40
0.0
 40
0.0000403578891936
 40
0.1670896913899027
 40
0.6133765181114397
 40
0.9999999999999999
 40
0.9999999999999999
 40
0.9999999999999999
 40
0.9999999999999999
 10
885.6007340714392
 20
902.9696651736555
 30
0.0
 10
885.600751144514
 20
902.9696747907766
 30
0.0
 10
885.6714370713145
 20
903.0094915859635
 30
0.0
 10
885.9360144474554
 20
903.1462238279275
 30
0.0
 10
886.4017462430292
 20
903.3174137780524
 30
0.0
 10
886.8149180298108
 20
903.346333232418
 30
0.0
 10
887.0067056847026
 20
903.3597571749789
 30
0.0
  0
SPLINE
  5
1C3
330
1F
100
AcDbEntity
  8
0
  6
Continuous
 62
     8
370
    18
100
AcDbSpline
210
0.0
220
0.0
230
1.0
 70
     8
 71
     3
 72
    11
 73
     7
 74
     0
 42
0.000000001
 43
0.00000001
 40
0.0
 40
0.0
 40
0.0
 40
0.0
 40
0.5574252101166455
 40
0.8582360298869189
 40
0.9999887157359582
 40
1.0
 40
1.0
 40
1.0
 40
1.0
 10
884.2335225505451
 20
898.3872598453707
 30
0.0
 10
884.2748823895641
 20
899.3006528263302
 30
0.0
 10
884.3385617915576
 20
900.7069522750779
 30
0.0
 10
884.9506328959066
 20
902.2452440822456
 30
0.0
 10
885.4244855928021
 20
902.8120757223184
 30
0.0
 10
885.6007200433609
 20
902.969652630698
 30
0.0
 10
885.6007340714392
 20
902.9696651736555
 30
0.0
  0
SPLINE
  5
1C4
330
1F
100
AcDbEntity
  8
0
  6
Continuous
 62
     8
370
    18
100
AcDbSpline
210
0.0
220
0.0
230
1.0
 70
     8
 71
     3
 72
     9
 73
     5
 74
     0
 42
0.000000001
 43
0.00000001
 40
0.0
 40
0.0
 40
0.0
 40
0.0
 40
0.8892351459142941
 40
1.0
 40
1.0
 40
1.0
 40
1.0
 10
884.1159870863539
 20
887.5919011802783
 30
0.0
 10
884.1650495929724
 20
890.81888953663
 30
0.0
 10
884.2202234205522
 20
894.4478378200828
 30
0.0
 10
884.2321963686916
 20
897.9944228698326
 30
0.0
 10
884.2335225505451
 20
898.3872598453707
 30
0.0
  0
LINE
  5
1C5
330
1F
100
AcDbEntity
  8
0
  6
Continuous
 62
     8
370
    18
100
AcDbLine
 10
884.3425369307
 20
848.8568315682
 30
0.0
 11
884.2601173389
 21
850.9142375983
 31
0.0
  0
SPLINE
  5
1C6
330
1F
100
AcDbEntity
  8
0
  6
Continuous
 62
     8
370
    18
100
AcDbSpline
210
0.0
220
0.0
230
1.0
 70
     8
 71
     3
 72
     9
 73
     5
 74
     0
 42
0.000000001
 43
0.00000001
 40
0.0
 40
0.0
 40
0.0
 40
0.0
 40
0.0843934950201028
 40
0.9999999999999999
 40
0.9999999999999999
 40
0.9999999999999999
 40
0.9999999999999999
 10
872.1026379010603
 20
848.861635629031
 30
0.0
 10
872.4469482943812
 20
848.8598310940505
 30
0.0
 10
876.5267697692326
 20
848.8384486998262
 30
0.0
 10
880.6068181200441
 20
848.8480450695901
 30
0.0
 10
884.3425369306796
 20
848.8568315681699
 30
0.0
  0
SPLINE
  5
1C7
330
1F
100
AcDbEntity
  8
0
  6
Continuous
 62
     8
370
    18
100
AcDbSpline
210
0.0
220
0.0
230
1.0
 70
     8
 71
     3
 72
    12
 73
     8
 74
     0
 42
0.000000001
 43
0.00000001
 40
0.0
 40
0.0
 40
0.0
 40
0.0
 40
0.3429907427795729
 40
0.6931111831538823
 40
0.8460382371952903
 40
0.9999906400284373
 40
1.0
 40
1.0
 40
1.0
 40
1.0
 10
937.0195671897667
 20
892.2610655177681
 30
0.0
 10
937.0602116072513
 20
892.6505942347984
 30
0.0
 10
937.1423453116862
 20
893.4377487444083
 30
0.0
 10
937.225590894099
 20
894.1125910792648
 30
0.0
 10
937.2756778784845
 20
894.4760584975529
 30
0.0
 10
937.2941133604351
 20
894.5924917147065
 30
0.0
 10
937.3019682427627
 20
894.6367469102045
 30
0.0
 10
937.3019687202934
 20
894.6367496006607
 30
0.0
  0
SPLINE
  5
1C8
330
1F
100
AcDbEntity
  8
0
  6
Continuous
 62
     8
370
    18
100
AcDbSpline
210
0.0
220
0.0
230
1.0
 70
     8
 71
     3
 72
    20
 73
    16
 74
     0
 42
0.000000001
 43
0.00000001
 40
0.0
 40
0.0
 40
0.0
 40
0.0
 40
0.0777495206401193
 40
0.1580444463721841
 40
0.2279673988375334
 40
0.2994604618770904
 40
0.3760581917562225
 40
0.4543933132980242
 40
0.5398335171527755
 40
0.6277318368777228
 40
0.7140713710304701
 40
0.8026163874373395
 40
0.8879068463690986
 40
0.975835572894791
 40
1.0
 40
1.0
 40
1.0
 40
1.0
 10
925.3018604609076
 20
849.2440249365856
 30
0.0
 10
925.2972298837021
 20
850.4088698742094
 30
0.0
 10
925.2878171309958
 20
852.7766950615612
 30
0.0
 10
925.7696829110417
 20
856.5957880739927
 30
0.0
 10
926.5388910551766
 20
860.4360202845576
 30
0.0
 10
927.5282150934713
 20
864.284735501867
 30
0.0
 10
928.7009009835442
 20
868.283094429086
 30
0.0
 10
929.9972748166516
 20
872.4636088967924
 30
0.0
 10
931.2851803240221
 20
876.6872546003274
 30
0.0
 10
932.4981337592841
 20
880.7630388237217
 30
0.0
 10
933.6661680386379
 20
884.4547175391202
 30
0.0
 10
934.7897921681998
 20
887.6250250848832
 30
0.0
 10
935.9014447696635
 20
890.1847501530982
 30
0.0
 10
936.6299344418014
 20
891.5991237046804
 30
0.0
 10
936.9504682663515
 20
892.1436742900372
 30
0.0
 10
937.0195671897667
 20
892.2610655177681
 30
0.0
  0
SPLINE
  5
1C9
330
1F
100
AcDbEntity
  8
0
  6
Continuous
 62
     8
370
    18
100
AcDbSpline
210
0.0
220
0.0
230
1.0
 70
     8
 71
     3
 72
     9
 73
     5
 74
     0
 42
0.000000001
 43
0.00000001
 40
0.0
 40
0.0
 40
0.0
 40
0.0
 40
0.3531288107769719
 40
1.0
 40
1.0
 40
1.0
 40
1.0
 10
815.0717103072532
 20
898.6036875822019
 30
0.0
 10
815.0718337460781
 20
897.3386947723999
 30
0.0
 10
815.0721833035806
 20
893.7564529071194
 30
0.0
 10
815.0708784715561
 20
890.1058015823634
 30
0.0
 10
815.0700344133127
 20
887.7443004184797
 30
0.0
  0
LINE
  5
1CA
330
1F
100
AcDbEntity
  8
0
  6
Continuous
 62
     8
370
    18
100
AcDbLine
 10
813.8047311724
 20
898.7526130802
 30
0.0
 11
813.7183980203
 21
887.8929140455
 31
0.0
  0
ARC
  5
1CB
330
1F
100
AcDbEntity
  8
0
  6
Continuous
 62
     8
370
    18
100
AcDbCircle
 10
813.8520177951
 20
893.6910466477
 30
0.0
 40
5.061787310424314
100
AcDbArc
 50
76.056743273
 51
90.5352582305
  0
LINE
  5
1CC
330
1F
100
AcDbEntity
  8
0
  6
Continuous
 62
     8
370
    18
100
AcDbLine
 10
887.4167178725
 20
898.7526130802
 30
0.0
 11
887.5030510247
 21
887.8929140455
 31
0.0
  0
SPLINE
  5
1CD
330
1F
100
AcDbEntity
  8
0
  6
Continuous
 62
     8
370
    18
100
AcDbSpline
210
0.0
220
0.0
230
1.0
 70
     8
 71
     3
 72
     9
 73
     5
 74
     0
 42
0.000000001
 43
0.00000001
 40
0.0
 40
0.0
 40
0.0
 40
0.0
 40
0.3531288107769719
 40
1.0
 40
1.0
 40
1.0
 40
1.0
 10
886.1497387376563
 20
898.6036875822012
 30
0.0
 10
886.1496152988313
 20
897.3386947723992
 30
0.0
 10
886.1492657413289
 20
893.7564529071188
 30
0.0
 10
886.1505705733534
 20
890.1058015823627
 30
0.0
 10
886.1514146315967
 20
887.744300418479
 30
0.0
  0
ARC
  5
1CE
330
1F
100
AcDbEntity
  8
0
  6
Continuous
 62
     8
370
    18
100
AcDbCircle
 10
887.3694312498
 20
893.6910466476
 30
0.0
 40
5.061787310432912
100
AcDbArc
 50
89.4647417695
 51
103.943256727
  0
SPLINE
  5
1CF
330
1F
100
AcDbEntity
  8
0
  6
Continuous
 62
     8
370
    18
100
AcDbSpline
210
0.0
220
0.0
230
1.0
 70
     8
 71
     3
 72
    10
 73
     6
 74
     0
 42
0.000000001
 43
0.00000001
 40
0.0
 40
0.0
 40
0.0
 40
0.0
 40
0.0049102993503908
 40
0.1151643441716951
 40
1.0
 40
1.0
 40
1.0
 40
1.0
 10
806.1461562132002
 20
887.7411817430086
 30
0.0
 10
806.146134115345
 20
887.7591173050943
 30
0.0
 10
806.1456158404262
 20
888.1797713421594
 30
0.0
 10
806.1403120169736
 20
891.8285609673327
 30
0.0
 10
806.1378981133882
 20
895.4025032575582
 30
0.0
 10
806.1357516657256
 20
898.5804595445139
 30
0.0
  0
ARC
  5
1D0
330
1F
100
AcDbEntity
  8
0
  6
Continuous
 62
     8
370
    18
100
AcDbCircle
 10
807.4239919552
 20
893.858106496
 30
0.0
 40
4.894913825376922
100
AcDbArc
 50
89.2609157049
 51
105.2587981171
  0
SPLINE
  5
1D1
330
1F
100
AcDbEntity
  8
0
  6
Continuous
 62
     8
370
    18
100
AcDbSpline
210
0.0
220
0.0
230
1.0
 70
     8
 71
     3
 72
     9
 73
     5
 74
     0
 42
0.000000001
 43
0.00000001
 40
0.0
 40
0.0
 40
0.0
 40
0.0
 40
0.853636342424055
 40
1.0
 40
1.0
 40
1.0
 40
1.0
 10
807.5373112658343
 20
887.892914045523
 30
0.0
 10
807.5166635133202
 20
891.0039949278229
 30
0.0
 10
807.4924755172284
 20
894.6484987143712
 30
0.0
 10
807.487814173203
 20
898.2286142725765
 30
0.0
 10
807.4871319218421
 20
898.7526130802199
 30
0.0
  0
SPLINE
  5
1D2
330
1F
100
AcDbEntity
  8
0
  6
Continuous
 62
     8
370
    18
100
AcDbSpline
210
0.0
220
0.0
230
1.0
 70
     8
 71
     3
 72
     9
 73
     5
 74
     0
 42
0.000000001
 43
0.00000001
 40
0.0
 40
0.0
 40
0.0
 40
0.0
 40
0.853636342424055
 40
1.0
 40
1.0
 40
1.0
 40
1.0
 10
893.6841377790751
 20
887.8929140455225
 30
0.0
 10
893.7047855315894
 20
891.0039949278222
 30
0.0
 10
893.728973527681
 20
894.6484987143705
 30
0.0
 10
893.7336348717065
 20
898.2286142725758
 30
0.0
 10
893.7343171230673
 20
898.7526130802194
 30
0.0
  0
ARC
  5
1D3
330
1F
100
AcDbEntity
  8
0
  6
Continuous
 62
     8
370
    18
100
AcDbCircle
 10
893.7974570897
 20
893.858106496
 30
0.0
 40
4.894913825381601
100
AcDbArc
 50
74.7412018829
 51
90.739084295
  0
SPLINE
  5
1D4
330
1F
100
AcDbEntity
  8
0
  6
Continuous
 62
     8
370
    18
100
AcDbSpline
210
0.0
220
0.0
230
1.0
 70
     8
 71
     3
 72
    10
 73
     6
 74
     0
 42
0.000000001
 43
0.00000001
 40
0.0
 40
0.0
 40
0.0
 40
0.0
 40
0.0049102993503908
 40
0.1151643441716951
 40
1.0
 40
1.0
 40
1.0
 40
1.0
 10
895.0752928317092
 20
887.741181743008
 30
0.0
 10
895.0753149295645
 20
887.7591173050936
 30
0.0
 10
895.0758332044833
 20
888.1797713421588
 30
0.0
 10
895.0811370279358
 20
891.828560967332
 30
0.0
 10
895.0835509315212
 20
895.4025032575576
 30
0.0
 10
895.085697379184
 20
898.5804595445134
 30
0.0
  0
LINE
  5
1D5
330
1F
100
AcDbEntity
  8
0
  6
Continuous
 62
     8
370
    18
100
AcDbLine
 10
813.8047311724
 20
898.7526130802
 30
0.0
 11
807.4871319218
 21
898.7526130802
 31
0.0
  0
LINE
  5
1D6
330
1F
100
AcDbEntity
  8
0
  6
Continuous
 62
     8
370
    18
100
AcDbLine
 10
887.4167178725
 20
898.7526130802
 30
0.0
 11
893.7343171231
 21
898.7526130802
 31
0.0
  0
ARC
  5
1D7
330
1F
100
AcDbEntity
  8
0
  6
Continuous
 62
     8
370
    18
100
AcDbCircle
 10
816.8817572792
 20
906.0384027911
 30
0.0
 40
7.651879525857751
100
AcDbArc
 50
256.3170319392
 51
270.7949998579
  0
ARC
  5
1D8
330
1F
100
AcDbEntity
  8
0
  6
Continuous
 62
     8
370
    18
100
AcDbCircle
 10
884.3396917657
 20
906.0384027911
 30
0.0
 40
7.651879525869424
100
AcDbArc
 50
269.2050001421
 51
283.6829680608
  0
ARC
  5
1D9
330
1F
100
AcDbEntity
  8
0
  6
Continuous
 62
     8
370
    18
100
AcDbCircle
 10
804.2287712996
 20
905.6227113971
 30
0.0
 40
7.295881391065817
100
AcDbArc
 50
269.6161135418
 51
285.1518230015
  0
ARC
  5
1DA
330
1F
100
AcDbEntity
  8
0
  6
Continuous
 62
     8
370
    18
100
AcDbCircle
 10
896.9926777453
 20
905.6227113971
 30
0.0
 40
7.295881391047784
100
AcDbArc
 50
254.8481769985
 51
270.3838864582
  0
LINE
  5
1DB
330
1F
100
AcDbEntity
  8
0
  6
Continuous
 62
     8
370
    18
100
AcDbLine
 10
804.2691074903
 20
848.9813231806
 30
0.0
 11
804.2828944415
 21
848.8242113211
 31
0.0
  0
SPLINE
  5
1DC
330
1F
100
AcDbEntity
  8
0
  6
Continuous
 62
     8
370
    18
100
AcDbSpline
210
0.0
220
0.0
230
1.0
 70
     8
 71
     3
 72
    14
 73
    10
 74
     0
 42
0.000000001
 43
0.00000001
 40
0.0
 40
0.0
 40
0.0
 40
0.0
 40
0.213507205401368
 40
0.6517504153255504
 40
0.8731400298126194
 40
0.9340362681777978
 40
0.960743100577066
 40
0.9801118651181863
 40
1.0
 40
1.0
 40
1.0
 40
1.0
 10
804.2828944415439
 20
848.8242113210938
 30
0.0
 10
804.3391416927155
 20
848.2303424525649
 30
0.0
 10
804.5108416090867
 20
846.4175030170762
 30
0.0
 10
804.8683275820554
 20
844.3634790549942
 30
0.0
 10
805.3200514665123
 20
843.0320226623647
 30
0.0
 10
805.8190905483198
 20
842.5814520919041
 30
0.0
 10
806.0892928813465
 20
842.4725727830574
 30
0.0
 10
806.2893611114016
 20
842.4331268445918
 30
0.0
 10
806.4152141098348
 20
842.4325071202541
 30
0.0
 10
806.4789731291387
 20
842.4321931585962
 30
0.0
  0
LINE
  5
1DD
330
1F
100
AcDbEntity
  8
0
  6
Continuous
 62
     8
370
    18
100
AcDbLine
 10
806.4789731291
 20
842.4321931586
 30
0.0
 11
814.7723227192
 21
842.6507112
 31
0.0
  0
SPLINE
  5
1DE
330
1F
100
AcDbEntity
  8
0
  6
Continuous
 62
     8
370
    18
100
AcDbSpline
210
0.0
220
0.0
230
1.0
 70
     8
 71
     3
 72
    16
 73
    12
 74
     0
 42
0.000000001
 43
0.00000001
 40
0.0
 40
0.0
 40
0.0
 40
0.0
 40
0.0145165189494738
 40
0.0410735504097995
 40
0.066044914974588
 40
0.1244471088434509
 40
0.1776973916031352
 40
0.2535931192178162
 40
0.3633556422017843
 40
0.5223716192680161
 40
1.0
 40
1.0
 40
1.0
 40
1.0
 10
814.7723227192303
 20
842.6507112000482
 30
0.0
 10
814.8149850128766
 20
842.6527783497514
 30
0.0
 10
814.935695210327
 20
842.6586272159864
 30
0.0
 10
815.1148564900244
 20
842.703882596453
 30
0.0
 10
815.354175656736
 20
842.8179404515733
 30
0.0
 10
815.5617503967475
 20
843.0063155634828
 30
0.0
 10
815.7670442014372
 20
843.2936983837167
 30
0.0
 10
815.9641102627428
 20
843.6932429770047
 30
0.0
 10
816.1790895066056
 20
844.3222380642447
 30
0.0
 10
816.5375346574652
 20
845.8139080538496
 30
0.0
 10
816.7183312306852
 20
847.4088900000302
 30
0.0
 10
816.8539698701409
 20
848.6054900089983
 30
0.0
  0
LINE
  5
1DF
330
1F
100
AcDbEntity
  8
0
  6
Continuous
 62
     8
370
    18
100
AcDbLine
 10
816.8539698701
 20
848.605490009
 30
0.0
 11
816.8789121142
 21
848.8568315682
 31
0.0
  0
SPLINE
  5
1E0
330
1F
100
AcDbEntity
  8
0
  6
Continuous
 62
     8
370
    18
100
AcDbSpline
210
0.0
220
0.0
230
1.0
 70
     8
 71
     3
 72
     9
 73
     5
 74
     0
 42
0.000000001
 43
0.00000001
 40
0.0
 40
0.0
 40
0.0
 40
0.0
 40
0.0094533958096584
 40
1.0
 40
1.0
 40
1.0
 40
1.0
 10
850.6107245224553
 20
840.5350816168898
 30
0.0
 10
850.6015164307771
 20
840.5350816398673
 30
0.0
 10
849.6274652153697
 20
840.5350840704675
 30
0.0
 10
848.6556066268936
 20
840.6604069716891
 30
0.0
 10
847.6929354023254
 20
840.7845451459215
 30
0.0
  0
SPLINE
  5
1E1
330
1F
100
AcDbEntity
  8
0
  6
Continuous
 62
     8
370
    18
100
AcDbSpline
210
0.0
220
0.0
230
1.0
 70
     8
 71
     3
 72
    12
 73
     8
 74
     0
 42
0.000000001
 43
0.00000001
 40
0.0
 40
0.0
 40
0.0
 40
0.0
 40
0.0986927005377611
 40
0.3626715646534617
 40
0.632053478893746
 40
0.8140997464527796
 40
0.9999999999999999
 40
0.9999999999999999
 40
0.9999999999999999
 40
0.9999999999999999
 10
846.6973688515135
 20
840.8704732237906
 30
0.0
 10
846.0830338775935
 20
840.9114532925703
 30
0.0
 10
843.8255029254668
 20
841.0620450342393
 30
0.0
 10
839.9444294903017
 20
842.1702003165882
 30
0.0
 10
835.6671713803945
 20
843.9862336612439
 30
0.0
 10
832.0134515804692
 20
846.2458704857065
 30
0.0
 10
830.0904054831547
 20
847.983646579319
 30
0.0
 10
829.1188111438497
 20
848.8616356290308
 30
0.0
  0
LINE
  5
1E2
330
1F
100
AcDbEntity
  8
0
  6
Continuous
 62
     8
370
    18
100
AcDbLine
 10
806.1359792783
 20
848.6229365268
 30
0.0
 11
806.1364317302
 21
848.7864737035
 31
0.0
  0
LINE
  5
1E3
330
1F
100
AcDbEntity
  8
0
  6
Continuous
 62
     8
370
    18
100
AcDbLine
 10
806.1364317302
 20
848.7864737035
 30
0.0
 11
806.1371237105
 21
850.6764254634
 31
0.0
  0
LINE
  5
1E4
330
1F
100
AcDbEntity
  8
0
  6
Continuous
 62
     8
370
    18
100
AcDbLine
 10
807.4175419499
 20
848.3047207409
 30
0.0
 11
807.479722043
 21
850.4753538367
 31
0.0
  0
ARC
  5
1E5
330
1F
100
AcDbEntity
  8
0
  6
Continuous
 62
     8
370
    18
100
AcDbCircle
 10
807.5490858948
 20
851.5742439365
 30
0.0
 40
3.272168353917764
100
AcDbArc
 50
244.4145746888
 51
267.6960401779
  0
LINE
  5
1E6
330
1F
100
AcDbEntity
  8
0
  6
Continuous
 62
     8
370
    18
100
AcDbLine
 10
814.7578334156
 20
842.7941701737
 30
0.0
 11
806.4453755988
 21
842.5756521323
 31
0.0
  0
SPLINE
  5
1E7
330
1F
100
AcDbEntity
  8
0
  6
Continuous
 62
     8
370
    18
100
AcDbSpline
210
0.0
220
0.0
230
1.0
 70
     8
 71
     3
 72
    10
 73
     6
 74
     0
 42
0.000000001
 43
0.00000001
 40
0.0
 40
0.0
 40
0.0
 40
0.0
 40
0.4454896378197732
 40
0.7187778752024843
 40
1.0
 40
1.0
 40
1.0
 40
1.0
 10
806.445375598807
 20
842.5756521322943
 30
0.0
 10
806.6704364336202
 20
843.1873128167728
 30
0.0
 10
807.0335621606968
 20
844.174200344137
 30
0.0
 10
807.2686266970913
 20
846.2509122130838
 30
0.0
 10
807.3674322982067
 20
847.6136187350128
 30
0.0
 10
807.4175419498611
 20
848.3047207408715
 30
0.0
  0
LINE
  5
1E8
330
1F
100
AcDbEntity
  8
0
  6
Continuous
 62
     8
370
    18
100
AcDbLine
 10
813.8227245364
 20
850.4753538366
 30
0.0
 11
813.8900509117
 21
848.1774403064
 31
0.0
  0
SPLINE
  5
1E9
330
1F
100
AcDbEntity
  8
0
  6
Continuous
 62
     8
370
    18
100
AcDbSpline
210
0.0
220
0.0
230
1.0
 70
     8
 71
     3
 72
    10
 73
     6
 74
     0
 42
0.000000001
 43
0.00000001
 40
0.0
 40
0.0
 40
0.0
 40
0.0
 40
0.5085358280598844
 40
0.7966056673011301
 40
1.0
 40
1.0
 40
1.0
 40
1.0
 10
813.8900509117361
 20
848.1774403064072
 30
0.0
 10
813.9790934764072
 20
847.052618914921
 30
0.0
 10
814.1185759036704
 20
845.2906209479778
 30
0.0
 10
814.4204989151737
 20
843.658850632888
 30
0.0
 10
814.6590911174959
 20
843.047273652815
 30
0.0
 10
814.7578334156107
 20
842.7941701737457
 30
0.0
  0
LINE
  5
1EA
330
1F
100
AcDbEntity
  8
0
  6
Continuous
 62
     8
370
    18
100
AcDbLine
 10
815.0713298172
 20
850.6444445466
 30
0.0
 11
815.0694735112
 21
848.711075354
 31
0.0
  0
LINE
  5
1EB
330
1F
100
AcDbEntity
  8
0
  6
Continuous
 62
     8
370
    18
100
AcDbLine
 10
815.0694735112
 20
848.711075354
 30
0.0
 11
815.0692787885
 21
848.4517644726
 31
0.0
  0
ARC
  5
1EC
330
1F
100
AcDbEntity
  8
0
  6
Continuous
 62
     8
370
    18
100
AcDbCircle
 10
813.7420890347
 20
851.4851942296
 30
0.0
 40
3.311061571935052
100
AcDbArc
 50
272.5612375306
 51
293.6303960838
  0
LINE
  5
1ED
330
1F
100
AcDbEntity
  8
0
  6
Continuous
 62
     8
370
    18
100
AcDbLine
 10
887.3987245085
 20
850.4753538366
 30
0.0
 11
887.3313981332
 21
848.1774403064
 31
0.0
  0
LINE
  5
1EE
330
1F
100
AcDbEntity
  8
0
  6
Continuous
 62
     8
370
    18
100
AcDbLine
 10
893.803907095
 20
848.3047207409
 30
0.0
 11
893.7417270019
 21
850.4753538366
 31
0.0
  0
SPLINE
  5
1EF
330
1F
100
AcDbEntity
  8
0
  6
Continuous
 62
     8
370
    18
100
AcDbSpline
210
0.0
220
0.0
230
1.0
 70
     8
 71
     3
 72
    10
 73
     6
 74
     0
 42
0.000000001
 43
0.00000001
 40
0.0
 40
0.0
 40
0.0
 40
0.0
 40
0.4454896378197928
 40
0.7187778752024943
 40
0.9999999999999999
 40
0.9999999999999999
 40
0.9999999999999999
 40
0.9999999999999999
 10
894.7760734461029
 20
842.575652132293
 30
0.0
 10
894.5510126112899
 20
843.1873128167717
 30
0.0
 10
894.1878868842133
 20
844.1742003441364
 30
0.0
 10
893.9528223478187
 20
846.2509122130832
 30
0.0
 10
893.8540167467033
 20
847.6136187350122
 30
0.0
 10
893.803907095049
 20
848.3047207408711
 30
0.0
  0
LINE
  5
1F0
330
1F
100
AcDbEntity
  8
0
  6
Continuous
 62
     8
370
    18
100
AcDbLine
 10
886.4636156293
 20
842.7941701737
 30
0.0
 11
894.7760734461
 21
842.5756521323
 31
0.0
  0
SPLINE
  5
1F1
330
1F
100
AcDbEntity
  8
0
  6
Continuous
 62
     8
370
    18
100
AcDbSpline
210
0.0
220
0.0
230
1.0
 70
     8
 71
     3
 72
    10
 73
     6
 74
     0
 42
0.000000001
 43
0.00000001
 40
0.0
 40
0.0
 40
0.0
 40
0.0
 40
0.5085358280598529
 40
0.7966056673011427
 40
1.0
 40
1.0
 40
1.0
 40
1.0
 10
887.331398133174
 20
848.1774403064072
 30
0.0
 10
887.2423555685028
 20
847.052618914921
 30
0.0
 10
887.1028731412398
 20
845.2906209479775
 30
0.0
 10
886.8009501297365
 20
843.6588506328882
 30
0.0
 10
886.5623579274143
 20
843.047273652815
 30
0.0
 10
886.4636156292995
 20
842.7941701737457
 30
0.0
  0
ARC
  5
1F2
330
1F
100
AcDbEntity
  8
0
  6
Continuous
 62
     8
370
    18
100
AcDbCircle
 10
887.4793600102
 20
851.4851942296
 30
0.0
 40
3.31106157193796
100
AcDbArc
 50
246.3696039162
 51
267.4387624694
  0
LINE
  5
1F3
330
1F
100
AcDbEntity
  8
0
  6
Continuous
 62
     8
370
    18
100
AcDbLine
 10
886.1519755338
 20
848.711075354
 30
0.0
 11
886.1521702564
 21
848.4517644726
 31
0.0
  0
LINE
  5
1F4
330
1F
100
AcDbEntity
  8
0
  6
Continuous
 62
     8
370
    18
100
AcDbLine
 10
886.1501192277
 20
850.6444445466
 30
0.0
 11
886.1519755338
 21
848.711075354
 31
0.0
  0
LINE
  5
1F5
330
1F
100
AcDbEntity
  8
0
  6
Continuous
 62
     8
370
    18
100
AcDbLine
 10
895.0850173147
 20
848.7864737035
 30
0.0
 11
895.0843253344
 21
850.6764254634
 31
0.0
  0
LINE
  5
1F6
330
1F
100
AcDbEntity
  8
0
  6
Continuous
 62
     8
370
    18
100
AcDbLine
 10
895.0854697666
 20
848.6229365268
 30
0.0
 11
895.0850173147
 21
848.7864737035
 31
0.0
  0
ARC
  5
1F7
330
1F
100
AcDbEntity
  8
0
  6
Continuous
 62
     8
370
    18
100
AcDbCircle
 10
893.6723631502
 20
851.5742439365
 30
0.0
 40
3.272168353912154
100
AcDbArc
 50
272.3039598221
 51
295.5854253112
  0
LINE
  5
1F8
330
1F
100
AcDbEntity
  8
0
  6
Continuous
 62
     8
370
    18
100
AcDbLine
 10
884.3674791748
 20
848.605490009
 30
0.0
 11
884.3425369307
 21
848.8568315682
 31
0.0
  0
SPLINE
  5
1F9
330
1F
100
AcDbEntity
  8
0
  6
Continuous
 62
     8
370
    18
100
AcDbSpline
210
0.0
220
0.0
230
1.0
 70
     8
 71
     3
 72
    16
 73
    12
 74
     0
 42
0.000000001
 43
0.00000001
 40
0.0
 40
0.0
 40
0.0
 40
0.0
 40
0.0145165189495135
 40
0.0410735504098392
 40
0.0660449149746278
 40
0.1244471088434908
 40
0.1776973916031753
 40
0.2535931192178852
 40
0.3633556422018526
 40
0.5223716192680848
 40
1.0
 40
1.0
 40
1.0
 40
1.0
 10
886.4491263256801
 20
842.6507112000482
 30
0.0
 10
886.4064640320337
 20
842.6527783497514
 30
0.0
 10
886.2857538345833
 20
842.6586272159864
 30
0.0
 10
886.1065925548857
 20
842.703882596453
 30
0.0
 10
885.8672733881742
 20
842.8179404515733
 30
0.0
 10
885.6596986481627
 20
843.0063155634828
 30
0.0
 10
885.4544048434728
 20
843.2936983837167
 30
0.0
 10
885.2573387821673
 20
843.6932429770047
 30
0.0
 10
885.0423595383047
 20
844.3222380642447
 30
0.0
 10
884.6839143874427
 20
845.8139080538493
 30
0.0
 10
884.50311781424
 20
847.4088900000312
 30
0.0
 10
884.3674791747972
 20
848.6054900090005
 30
0.0
  0
LINE
  5
1FA
330
1F
100
AcDbEntity
  8
0
  6
Continuous
 62
     8
370
    18
100
AcDbLine
 10
894.7424759158
 20
842.4321931586
 30
0.0
 11
886.4491263257
 21
842.6507112
 31
0.0
  0
SPLINE
  5
1FB
330
1F
100
AcDbEntity
  8
0
  6
Continuous
 62
     8
370
    18
100
AcDbSpline
210
0.0
220
0.0
230
1.0
 70
     8
 71
     3
 72
    14
 73
    10
 74
     0
 42
0.000000001
 43
0.00000001
 40
0.0
 40
0.0
 40
0.0
 40
0.0
 40
0.2135072054014696
 40
0.6517504153255743
 40
0.8731400298126415
 40
0.9340362681778099
 40
0.9607431005770728
 40
0.9801118651181898
 40
1.0
 40
1.0
 40
1.0
 40
1.0
 10
896.9385546033466
 20
848.8242113210956
 30
0.0
 10
896.8823073521827
 20
848.2303424525659
 30
0.0
 10
896.7106074358354
 20
846.4175030170751
 30
0.0
 10
896.3531214628525
 20
844.3634790549941
 30
0.0
 10
895.901397578398
 20
843.0320226623636
 30
0.0
 10
895.4023584965903
 20
842.5814520919026
 30
0.0
 10
895.1321561635636
 20
842.4725727830562
 30
0.0
 10
894.9320879335085
 20
842.4331268445904
 30
0.0
 10
894.8062349350752
 20
842.4325071202527
 30
0.0
 10
894.7424759157713
 20
842.4321931585949
 30
0.0
  0
LINE
  5
1FC
330
1F
100
AcDbEntity
  8
0
  6
Continuous
 62
     8
370
    18
100
AcDbLine
 10
896.9523415546
 20
848.9813231806
 30
0.0
 11
896.9385546033
 21
848.8242113211
 31
0.0
  0
SPLINE
  5
1FD
330
1F
100
AcDbEntity
  8
0
  6
Continuous
 62
     8
370
    18
100
AcDbSpline
210
0.0
220
0.0
230
1.0
 70
     8
 71
     3
 72
    15
 73
    11
 74
     0
 42
0.000000001
 43
0.00000001
 40
0.0
 40
0.0
 40
0.0
 40
0.0
 40
0.0014239395057858
 40
0.1351061085576225
 40
0.2892216052154395
 40
0.4462432513905966
 40
0.5840152296264945
 40
0.7248088485654166
 40
0.8605044118101064
 40
1.0
 40
1.0
 40
1.0
 40
1.0
 10
919.6575069295279
 20
840.5350816168892
 30
0.0
 10
919.6630069974427
 20
840.5350845363524
 30
0.0
 10
920.184863979249
 20
840.5353615406073
 30
0.0
 10
921.2348941737766
 20
840.6217159791987
 30
0.0
 10
922.6291379073967
 20
841.0875286188676
 30
0.0
 10
923.780234501017
 20
841.97806793807
 30
0.0
 10
924.6367662855588
 20
843.2618290131878
 30
0.0
 10
925.180111895827
 20
844.8778494019658
 30
0.0
 10
925.4554008692248
 20
846.8583981177363
 30
0.0
 10
925.3535095914983
 20
848.441529017381
 30
0.0
 10
925.3018604609076
 20
849.2440249365856
 30
0.0
  0
SPLINE
  5
1FE
330
1F
100
AcDbEntity
  8
0
  6
Continuous
 62
     8
370
    18
100
AcDbSpline
210
0.0
220
0.0
230
1.0
 70
     8
 71
     3
 72
    12
 73
     8
 74
     0
 42
0.000000001
 43
0.00000001
 40
0.0
 40
0.0
 40
0.0
 40
0.0
 40
0.1729070209294642
 40
0.3500592529377279
 40
0.6008939024631954
 40
0.857489987549421
 40
1.0
 40
1.0
 40
1.0
 40
1.0
 10
872.1026379010603
 20
848.861635629031
 30
0.0
 10
871.1534125286342
 20
848.0021718566804
 30
0.0
 10
869.2316564139616
 20
846.2621427678745
 30
0.0
 10
865.6117170959401
 20
844.0188310197428
 30
0.0
 10
861.313118754298
 20
842.1716947063171
 30
0.0
 10
857.1159952024574
 20
841.0034378880613
 30
0.0
 10
854.5037522884236
 20
840.844841776199
 30
0.0
 10
853.5709908685894
 20
840.7882113863965
 30
0.0
  0
SPLINE
  5
1FF
330
1F
100
AcDbEntity
  8
0
  6
Continuous
 62
     8
370
    18
100
AcDbSpline
210
0.0
220
0.0
230
1.0
 70
     8
 71
     3
 72
     9
 73
     5
 74
     0
 42
0.000000001
 43
0.00000001
 40
0.0
 40
0.0
 40
0.0
 40
0.0
 40
0.9809099457842912
 40
1.0
 40
1.0
 40
1.0
 40
1.0
 10
852.0556347685446
 20
840.657419891988
 30
0.0
 10
851.5835542891704
 20
840.5967402526218
 30
0.0
 10
851.1022863793046
 20
840.5348796917958
 30
0.0
 10
850.6199326807125
 20
840.535077834338
 30
0.0
 10
850.6107245224553
 20
840.5350816168898
 30
0.0
  0
ARC
  5
200
330
1F
100
AcDbEntity
  8
0
  6
Continuous
 62
     8
370
    18
100
AcDbCircle
 10
816.4216213192
 20
843.2295116395
 30
0.0
 40
5.645869680606999
100
AcDbArc
 50
85.3542029002
 51
103.8566348578
  0
ARC
  5
201
330
1F
100
AcDbEntity
  8
0
  6
Continuous
 62
     8
370
    18
100
AcDbCircle
 10
884.7998277257
 20
843.2295116395
 30
0.0
 40
5.645869680600322
100
AcDbArc
 50
76.1433651422
 51
94.6457970998
  0
ARC
  5
202
330
1F
100
AcDbEntity
  8
0
  6
Continuous
 62
     8
370
    18
100
AcDbCircle
 10
804.6371870791
 20
843.4636838945
 30
0.0
 40
5.529902881135484
100
AcDbArc
 50
74.2693192234
 51
93.8165246585
  0
ARC
  5
203
330
1F
100
AcDbEntity
  8
0
  6
Continuous
 62
     8
370
    18
100
AcDbCircle
 10
896.5842619658
 20
843.4636838945
 30
0.0
 40
5.529902881131076
100
AcDbArc
 50
86.1834753415
 51
105.7306807766
  0
SPLINE
  5
204
330
1F
100
AcDbEntity
  8
0
  6
Continuous
 62
     8
370
    18
100
AcDbSpline
210
0.0
220
0.0
230
1.0
 70
     8
 71
     3
 72
    15
 73
    11
 74
     0
 42
0.000000001
 43
0.00000001
 40
0.0
 40
0.0
 40
0.0
 40
0.0
 40
0.0247383799946503
 40
0.0492201071029635
 40
0.0751567027976501
 40
0.118695396431137
 40
0.2418825692051537
 40
0.4816368506398208
 40
0.8380569172748068
 40
1.0
 40
1.0
 40
1.0
 40
1.0
 10
814.192952084516
 20
902.5987526820156
 30
0.0
 10
814.2330244060868
 20
902.5996523231265
 30
0.0
 10
814.3127533115364
 20
902.6014422718557
 30
0.0
 10
814.4272652411469
 20
902.5610612448676
 30
0.0
 10
814.5464751367211
 20
902.4821976890017
 30
0.0
 10
814.7352986086576
 20
902.2722610131805
 30
0.0
 10
814.9591054920446
 20
901.7365366843634
 30
0.0
 10
815.0541439111548
 20
900.7327425050064
 30
0.0
 10
815.0702478637328
 20
899.6307973257293
 30
0.0
 10
815.071362180776
 20
898.8481852956124
 30
0.0
 10
815.0717103072532
 20
898.6036875822019
 30
0.0
  0
SPLINE
  5
205
330
1F
100
AcDbEntity
  8
0
  6
Continuous
 62
     8
370
    18
100
AcDbSpline
210
0.0
220
0.0
230
1.0
 70
     8
 71
     3
 72
     9
 73
     5
 74
     0
 42
0.000000001
 43
0.00000001
 40
0.0
 40
0.0
 40
0.0
 40
0.0
 40
0.3204572925054245
 40
1.0
 40
1.0
 40
1.0
 40
1.0
 10
814.192952084516
 20
902.5987526820156
 30
0.0
 10
814.117763918807
 20
902.2437523229286
 30
0.0
 10
813.8831361931553
 20
901.1359592803316
 30
0.0
 10
813.8364538310923
 20
899.7169145668648
 30
0.0
 10
813.8047311723836
 20
898.7526130802199
 30
0.0
  0
SPLINE
  5
206
330
1F
100
AcDbEntity
  8
0
  6
Continuous
 62
     8
370
    18
100
AcDbSpline
210
0.0
220
0.0
230
1.0
 70
     8
 71
     3
 72
    15
 73
    11
 74
     0
 42
0.000000001
 43
0.00000001
 40
0.0
 40
0.0
 40
0.0
 40
0.0
 40
0.0247383799946503
 40
0.0492201071029635
 40
0.0751567027976501
 40
0.118695396431137
 40
0.2418825692051537
 40
0.4816368506398208
 40
0.8380569172748068
 40
1.0
 40
1.0
 40
1.0
 40
1.0
 10
887.0284969603933
 20
902.598752682015
 30
0.0
 10
886.9884246388226
 20
902.599652323126
 30
0.0
 10
886.908695733373
 20
902.6014422718553
 30
0.0
 10
886.7941838037625
 20
902.5610612448669
 30
0.0
 10
886.6749739081883
 20
902.482197689001
 30
0.0
 10
886.4861504362518
 20
902.2722610131799
 30
0.0
 10
886.2623435528648
 20
901.7365366843627
 30
0.0
 10
886.1673051337546
 20
900.7327425050058
 30
0.0
 10
886.1512011811766
 20
899.6307973257286
 30
0.0
 10
886.1500868641335
 20
898.8481852956119
 30
0.0
 10
886.1497387376563
 20
898.6036875822012
 30
0.0
  0
SPLINE
  5
207
330
1F
100
AcDbEntity
  8
0
  6
Continuous
 62
     8
370
    18
100
AcDbSpline
210
0.0
220
0.0
230
1.0
 70
     8
 71
     3
 72
     9
 73
     5
 74
     0
 42
0.000000001
 43
0.00000001
 40
0.0
 40
0.0
 40
0.0
 40
0.0
 40
0.3204572925054245
 40
1.0
 40
1.0
 40
1.0
 40
1.0
 10
887.0284969603933
 20
902.598752682015
 30
0.0
 10
887.1036851261024
 20
902.243752322928
 30
0.0
 10
887.3383128517542
 20
901.1359592803309
 30
0.0
 10
887.3849952138171
 20
899.7169145668643
 30
0.0
 10
887.4167178725257
 20
898.7526130802194
 30
0.0
  0
SPLINE
  5
208
330
1F
100
AcDbEntity
  8
0
  6
Continuous
 62
     8
370
    18
100
AcDbSpline
210
0.0
220
0.0
230
1.0
 70
     8
 71
     3
 72
    15
 73
    11
 74
     0
 42
0.000000001
 43
0.00000001
 40
0.0
 40
0.0
 40
0.0
 40
0.0
 40
0.3092031051605585
 40
0.663838255257455
 40
0.803986173963673
 40
0.9077221477257735
 40
0.9361281220494168
 40
0.9546919441403823
 40
0.978908979412591
 40
1.0
 40
1.0
 40
1.0
 40
1.0
 10
806.1357516657256
 20
898.5804595445139
 30
0.0
 10
806.1364917159942
 20
899.0681790542423
 30
0.0
 10
806.1380805541107
 20
900.1152800147092
 30
0.0
 10
806.148271223066
 20
901.3164659173993
 30
0.0
 10
806.3452770205832
 20
902.1725435979439
 30
0.0
 10
806.5501305410121
 20
902.5346732669319
 30
0.0
 10
806.7362191767319
 20
902.6840159643856
 30
0.0
 10
806.8425828587912
 20
902.7333753078107
 30
0.0
 10
806.9512530952709
 20
902.7541770290358
 30
0.0
 10
807.0265471577766
 20
902.74413619444
 30
0.0
 10
807.0615967442637
 20
902.7394621592126
 30
0.0
  0
SPLINE
  5
209
330
1F
100
AcDbEntity
  8
0
  6
Continuous
 62
     8
370
    18
100
AcDbSpline
210
0.0
220
0.0
230
1.0
 70
     8
 71
     3
 72
     9
 73
     5
 74
     0
 42
0.000000001
 43
0.00000001
 40
0.0
 40
0.0
 40
0.0
 40
0.0
 40
0.6310361367051674
 40
1.0
 40
1.0
 40
1.0
 40
1.0
 10
807.4871319218421
 20
898.7526130802199
 30
0.0
 10
807.4572261864914
 20
899.689094458304
 30
0.0
 10
807.4098347082364
 20
901.1731320967403
 30
0.0
 10
807.1554540241951
 20
902.3173040536994
 30
0.0
 10
807.0615967442637
 20
902.7394621592126
 30
0.0
  0
SPLINE
  5
20A
330
1F
100
AcDbEntity
  8
0
  6
Continuous
 62
     8
370
    18
100
AcDbSpline
210
0.0
220
0.0
230
1.0
 70
     8
 71
     3
 72
     9
 73
     5
 74
     0
 42
0.000000001
 43
0.00000001
 40
0.0
 40
0.0
 40
0.0
 40
0.0
 40
0.6310361367051674
 40
1.0
 40
1.0
 40
1.0
 40
1.0
 10
893.7343171230673
 20
898.7526130802194
 30
0.0
 10
893.7642228584181
 20
899.6890944583033
 30
0.0
 10
893.8116143366731
 20
901.1731320967397
 30
0.0
 10
894.0659950207142
 20
902.3173040536988
 30
0.0
 10
894.1598523006456
 20
902.7394621592119
 30
0.0
  0
SPLINE
  5
20B
330
1F
100
AcDbEntity
  8
0
  6
Continuous
 62
     8
370
    18
100
AcDbSpline
210
0.0
220
0.0
230
1.0
 70
     8
 71
     3
 72
    15
 73
    11
 74
     0
 42
0.000000001
 43
0.00000001
 40
0.0
 40
0.0
 40
0.0
 40
0.0
 40
0.3092031051605585
 40
0.663838255257455
 40
0.803986173963673
 40
0.9077221477257735
 40
0.9361281220494168
 40
0.9546919441403823
 40
0.978908979412591
 40
1.0
 40
1.0
 40
1.0
 40
1.0
 10
895.085697379184
 20
898.5804595445134
 30
0.0
 10
895.0849573289152
 20
899.0681790542416
 30
0.0
 10
895.0833684907989
 20
900.1152800147087
 30
0.0
 10
895.0731778218435
 20
901.3164659173988
 30
0.0
 10
894.8761720243261
 20
902.1725435979431
 30
0.0
 10
894.6713185038974
 20
902.5346732669313
 30
0.0
 10
894.4852298681775
 20
902.6840159643849
 30
0.0
 10
894.3788661861182
 20
902.73337530781
 30
0.0
 10
894.2701959496385
 20
902.7541770290352
 30
0.0
 10
894.1949018871328
 20
902.7441361944394
 30
0.0
 10
894.1598523006456
 20
902.7394621592119
 30
0.0
  0
LINE
  5
20C
330
1F
100
AcDbEntity
  8
0
  6
Continuous
 62
     8
370
    18
100
AcDbLine
 10
807.0615967443
 20
902.7394621592
 30
0.0
 11
814.1929520845
 21
902.598752682
 31
0.0
  0
LINE
  5
20D
330
1F
100
AcDbEntity
  8
0
  6
Continuous
 62
     8
370
    18
100
AcDbLine
 10
894.1598523006
 20
902.7394621592
 30
0.0
 11
887.0284969604
 21
902.598752682
 31
0.0
  0
ARC
  5
20E
330
1F
100
AcDbEntity
  8
0
  6
Continuous
 62
     8
370
    18
100
AcDbCircle
 10
720.4372724581
 20
905.6642499725
 30
0.0
 40
93.80578199579169
100
AcDbArc
 50
358.1272867192
 51
358.5922936386
  0
ARC
  5
20F
330
1F
100
AcDbEntity
  8
0
  6
Continuous
 62
     8
370
    18
100
AcDbCircle
 10
980.7841766383
 20
905.6642499741
 30
0.0
 40
93.8057820473782
100
AcDbArc
 50
181.4077063616
 51
181.8727132807
  0
ARC
  5
210
330
1F
100
AcDbEntity
  8
0
  6
Continuous
 62
     8
370
    18
100
AcDbCircle
 10
766.4891136313
 20
905.6649578243
 30
0.0
 40
40.67781841291664
100
AcDbArc
 50
355.8758017505
 51
356.9247251143
  0
ARC
  5
211
330
1F
100
AcDbEntity
  8
0
  6
Continuous
 62
     8
370
    18
100
AcDbCircle
 10
934.7323354218
 20
905.6649578248
 30
0.0
 40
40.67781842114089
100
AcDbArc
 50
183.0752748858
 51
184.1241982495
  0
SPLINE
  5
212
330
1F
100
AcDbEntity
  8
0
  6
Continuous
 62
     8
370
    18
100
AcDbSpline
210
0.0
220
0.0
230
1.0
 70
     8
 71
     3
 72
    19
 73
    15
 74
     0
 42
0.000000001
 43
0.00000001
 40
0.0
 40
0.0
 40
0.0
 40
0.0
 40
0.5108655809784871
 40
0.6773161886274496
 40
0.789729481409052
 40
0.8649135704138743
 40
0.9149987759643737
 40
0.9638937301973742
 40
0.9805048002912533
 40
0.9864047265890651
 40
0.9923573643452019
 40
0.9937773259466394
 40
0.9978992913798034
 40
1.0
 40
1.0
 40
1.0
 40
1.0
 10
815.0692787885292
 20
848.4517644725929
 30
0.0
 10
815.0702284265485
 20
847.2726670507992
 30
0.0
 10
815.071487476341
 20
845.7093952206237
 30
0.0
 10
815.0732543195821
 20
844.2874941100281
 30
0.0
 10
815.0661642439857
 20
843.7055757992482
 30
0.0
 10
815.0490639020298
 20
843.3442724477175
 30
0.0
 10
815.01587619561
 20
843.094282480178
 30
0.0
 10
814.9742020317699
 20
842.9360945308123
 30
0.0
 10
814.9059670960252
 20
842.8452621900014
 30
0.0
 10
814.8606790494078
 20
842.8139573482375
 30
0.0
 10
814.8317721301601
 20
842.8021540462047
 30
0.0
 10
814.8025617336606
 20
842.7956620769133
 30
0.0
 10
814.7810632644049
 20
842.7933470985473
 30
0.0
 10
814.7636963136081
 20
842.7939624407562
 30
0.0
 10
814.7578334156107
 20
842.7941701737457
 30
0.0
  0
ARC
  5
213
330
1F
100
AcDbEntity
  8
0
  6
Continuous
 62
     8
370
    18
100
AcDbCircle
 10
816.4261462276
 20
843.1357165478
 30
0.0
 40
5.486479270497641
100
AcDbArc
 50
85.5276603397
 51
104.3184561189
  0
ARC
  5
214
330
1F
100
AcDbEntity
  8
0
  6
Continuous
 62
     8
370
    18
100
AcDbCircle
 10
807.5769256799
 20
841.9964399375
 30
0.0
 40
7.22508196755969
100
AcDbArc
 50
5.1955682005
 51
6.339022105
  0
ARC
  5
215
330
1F
100
AcDbEntity
  8
0
  6
Continuous
 62
     8
370
    18
100
AcDbCircle
 10
884.7953028173
 20
843.1357165479
 30
0.0
 40
5.486479270455639
100
AcDbArc
 50
75.6815438811
 51
94.4723396601
  0
SPLINE
  5
216
330
1F
100
AcDbEntity
  8
0
  6
Continuous
 62
     8
370
    18
100
AcDbSpline
210
0.0
220
0.0
230
1.0
 70
     8
 71
     3
 72
    19
 73
    15
 74
     0
 42
0.000000001
 43
0.00000001
 40
0.0
 40
0.0
 40
0.0
 40
0.0
 40
0.5108655809785106
 40
0.6773161886274651
 40
0.7897294814090621
 40
0.8649135704138807
 40
0.9149987759643777
 40
0.9638937301973759
 40
0.9805048002912542
 40
0.9864047265890658
 40
0.9923573643452023
 40
0.9937773259466397
 40
0.9978992913798035
 40
1.0
 40
1.0
 40
1.0
 40
1.0
 10
886.1521702563807
 20
848.4517644725929
 30
0.0
 10
886.1512206183617
 20
847.2726670507992
 30
0.0
 10
886.1499615685692
 20
845.7093952206237
 30
0.0
 10
886.148194725328
 20
844.2874941100283
 30
0.0
 10
886.1552848009244
 20
843.7055757992482
 30
0.0
 10
886.1723851428803
 20
843.3442724477175
 30
0.0
 10
886.2055728493001
 20
843.094282480178
 30
0.0
 10
886.2472470131403
 20
842.9360945308124
 30
0.0
 10
886.315481948885
 20
842.8452621900014
 30
0.0
 10
886.3607699955023
 20
842.8139573482375
 30
0.0
 10
886.38967691475
 20
842.8021540462047
 30
0.0
 10
886.4188873112494
 20
842.7956620769133
 30
0.0
 10
886.440385780505
 20
842.7933470985474
 30
0.0
 10
886.4577527313021
 20
842.7939624407562
 30
0.0
 10
886.4636156292995
 20
842.7941701737457
 30
0.0
  0
ARC
  5
217
330
1F
100
AcDbEntity
  8
0
  6
Continuous
 62
     8
370
    18
100
AcDbCircle
 10
893.6445233688
 20
841.9964399372
 30
0.0
 40
7.22508197136178
100
AcDbArc
 50
173.6609778953
 51
174.8044317993
  0
SPLINE
  5
218
330
1F
100
AcDbEntity
  8
0
  6
Continuous
 62
     8
370
    18
100
AcDbSpline
210
0.0
220
0.0
230
1.0
 70
     8
 71
     3
 72
    17
 73
    13
 74
     0
 42
0.000000001
 43
0.00000001
 40
0.0
 40
0.0
 40
0.0
 40
0.0
 40
0.0045109817899508
 40
0.0089278415503381
 40
0.0130797684277637
 40
0.0177777921768911
 40
0.0339670776357914
 40
0.084060007251609
 40
0.3047425979556686
 40
0.7692822253148978
 40
0.8273200843747881
 40
1.0
 40
1.0
 40
1.0
 40
1.0
 10
806.445375598807
 20
842.5756521322943
 30
0.0
 10
806.4324061077862
 20
842.5738883434833
 30
0.0
 10
806.4067377353088
 20
842.570397567469
 30
0.0
 10
806.3658617252152
 20
842.5721121032655
 30
0.0
 10
806.3285010351137
 20
842.5804330091155
 30
0.0
 10
806.2725710121938
 20
842.6051030605519
 30
0.0
 10
806.1880648813134
 20
842.6983152523632
 30
0.0
 10
806.0937898901743
 20
843.1022591936901
 30
0.0
 10
806.1265899952713
 20
844.29337256294
 30
0.0
 10
806.1272473119811
 20
845.8904850895132
 30
0.0
 10
806.1331730075333
 20
847.5771349264521
 30
0.0
 10
806.1347780155994
 20
848.1752668042061
 30
0.0
 10
806.1359792783015
 20
848.6229365267675
 30
0.0
  0
ARC
  5
219
330
1F
100
AcDbEntity
  8
0
  6
Continuous
 62
     8
370
    18
100
AcDbCircle
 10
803.6804808705
 20
841.8524609131
 30
0.0
 40
2.857909795302696
100
AcDbArc
 50
11.70377632
 51
14.6580100089
  0
ARC
  5
21A
330
1F
100
AcDbEntity
  8
0
  6
Continuous
 62
     8
370
    18
100
AcDbCircle
 10
804.6313808736
 20
843.4015623598
 30
0.0
 40
5.433835160386737
100
AcDbArc
 50
73.9250614362
 51
93.677055676
  0
ARC
  5
21B
330
1F
100
AcDbEntity
  8
0
  6
Continuous
 62
     8
370
    18
100
AcDbCircle
 10
897.5409681751
 20
841.852460913
 30
0.0
 40
2.857909796025311
100
AcDbArc
 50
165.3419899915
 51
168.2962236796
  0
SPLINE
  5
21C
330
1F
100
AcDbEntity
  8
0
  6
Continuous
 62
     8
370
    18
100
AcDbSpline
210
0.0
220
0.0
230
1.0
 70
     8
 71
     3
 72
    17
 73
    13
 74
     0
 42
0.000000001
 43
0.00000001
 40
0.0
 40
0.0
 40
0.0
 40
0.0
 40
0.0045109817899506
 40
0.0089278415503378
 40
0.0130797684277633
 40
0.01777779217689
 40
0.0339670776357897
 40
0.0840600072516062
 40
0.3047425979556952
 40
0.7692822253149073
 40
0.8273200843747944
 40
0.9999999999999999
 40
0.9999999999999999
 40
0.9999999999999999
 40
0.9999999999999999
 10
894.7760734461029
 20
842.575652132293
 30
0.0
 10
894.789042937124
 20
842.573888343482
 30
0.0
 10
894.8147113096014
 20
842.5703975674678
 30
0.0
 10
894.8555873196949
 20
842.5721121032641
 30
0.0
 10
894.8929480097964
 20
842.5804330091142
 30
0.0
 10
894.9488780327164
 20
842.6051030605505
 30
0.0
 10
895.0333841635967
 20
842.698315252362
 30
0.0
 10
895.1276591547359
 20
843.1022591936888
 30
0.0
 10
895.0948590496388
 20
844.2933725629399
 30
0.0
 10
895.094201732929
 20
845.8904850895126
 30
0.0
 10
895.0882760373767
 20
847.5771349264515
 30
0.0
 10
895.0866710293107
 20
848.1752668042054
 30
0.0
 10
895.0854697666085
 20
848.6229365267669
 30
0.0
  0
ARC
  5
21D
330
1F
100
AcDbEntity
  8
0
  6
Continuous
 62
     8
370
    18
100
AcDbCircle
 10
896.5900681713
 20
843.4015623599
 30
0.0
 40
5.433835160320049
100
AcDbArc
 50
86.3229443242
 51
106.074938564
  0
SPLINE
  5
21E
330
1F
100
AcDbEntity
  8
0
  6
Continuous
 62
     8
370
    18
100
AcDbSpline
210
0.0
220
0.0
230
1.0
 70
     8
 71
     3
 72
    20
 73
    16
 74
     0
 42
0.000000001
 43
0.00000001
 40
0.0
 40
0.0
 40
0.0
 40
0.0
 40
0.0177553498927668
 40
0.0895541770723954
 40
0.1635124813712783
 40
0.2505819007214747
 40
0.3150328805895231
 40
0.380514779765229
 40
0.4675444081230326
 40
0.5694410813320719
 40
0.6754503316775928
 40
0.7871440412594479
 40
0.8785532165774702
 40
0.9388623767392652
 40
1.0
 40
1.0
 40
1.0
 40
1.0
 10
926.7492716576925
 20
849.7971376572398
 30
0.0
 10
926.7385677274921
 20
850.0462460163825
 30
0.0
 10
926.6845793991107
 20
851.3026951564792
 30
0.0
 10
926.7493617077914
 20
853.7858421137693
 30
0.0
 10
927.192370649794
 20
857.5817235873051
 30
0.0
 10
927.9472334642936
 20
861.4348666874786
 30
0.0
 10
928.8575250522696
 20
865.18868176076
 30
0.0
 10
929.8544914173427
 20
868.9398329395433
 30
0.0
 10
931.0583890218535
 20
873.27656988099
 30
0.0
 10
932.3343343197487
 20
878.0940405308378
 30
0.0
 10
933.6055109761433
 20
882.8329508856967
 30
0.0
 10
934.7972069825737
 20
886.7494187952557
 30
0.0
 10
935.8028024179259
 20
889.4296295880781
 30
0.0
 10
936.5327824600325
 20
891.1813124923955
 30
0.0
 10
936.8565693634123
 20
891.8995147430933
 30
0.0
 10
937.0195671897667
 20
892.2610655177681
 30
0.0
  0
ARC
  5
21F
330
1F
100
AcDbEntity
  8
0
  6
Continuous
 62
     8
370
    18
100
AcDbCircle
 10
927.3790518572
 20
845.9787164556
 30
0.0
 40
3.870008213482274
100
AcDbArc
 50
99.3655973717
 51
122.4620469832
  0
ARC
  5
220
330
1F
100
AcDbEntity
  8
0
  6
Continuous
 62
     8
370
    18
100
AcDbCircle
 10
929.7694752916
 20
889.1858006833
 30
0.0
 40
7.875346743772574
100
AcDbArc
 50
22.4525517107
 51
22.9851555299
  0
SPLINE
  5
221
330
1F
100
AcDbEntity
  8
0
  6
Continuous
 62
     8
370
    18
100
AcDbSpline
210
0.0
220
0.0
230
1.0
 70
     8
 71
     3
 72
    19
 73
    15
 74
     0
 42
0.000000001
 43
0.00000001
 40
0.0
 40
0.0
 40
0.0
 40
0.0
 40
0.0812843755281369
 40
0.1625926981205905
 40
0.2503967158277933
 40
0.3382767484838721
 40
0.4242704765567141
 40
0.510246220949113
 40
0.5965701789596964
 40
0.6829065819723038
 40
0.7657398742054027
 40
0.8485711078275133
 40
0.9243009273350644
 40
1.0
 40
1.0
 40
1.0
 40
1.0
 10
926.8153289584
 20
849.8066564424454
 30
0.0
 10
926.8064584706095
 20
850.9846148624965
 30
0.0
 10
926.7887148817082
 20
853.3408787391095
 30
0.0
 10
927.2682909115925
 20
857.4362974436531
 30
0.0
 10
928.1240437400613
 20
861.8141014052885
 30
0.0
 10
929.2477878119921
 20
866.3514635654197
 30
0.0
 10
930.4638044293255
 20
870.823115606816
 30
0.0
 10
931.6472263007695
 20
875.1480870486441
 30
0.0
 10
932.7200167144142
 20
879.2424425657398
 30
0.0
 10
933.7207174252519
 20
882.9396812035621
 30
0.0
 10
934.6936431039486
 20
886.1487757453029
 30
0.0
 10
935.6043650535321
 20
888.7536396426743
 30
0.0
 10
936.4418949962406
 20
890.8265574263016
 30
0.0
 10
936.8458858414715
 20
891.7379401686752
 30
0.0
 10
937.0478402499754
 20
892.1935390141182
 30
0.0
  0
ARC
  5
222
330
1F
100
AcDbEntity
  8
0
  6
Continuous
 62
     8
370
    18
100
AcDbCircle
 10
923.7110150315
 20
871.1156267634
 30
0.0
 40
21.53390306231322
100
AcDbArc
 50
278.1110275318
 51
278.2886032803
  0
SPLINE
  5
223
330
1F
100
AcDbEntity
  8
0
  6
Continuous
 62
     8
370
    18
100
AcDbSpline
210
0.0
220
0.0
230
1.0
 70
     8
 71
     3
 72
    20
 73
    16
 74
     0
 42
0.000000001
 43
0.00000001
 40
0.0
 40
0.0
 40
0.0
 40
0.0
 40
0.0734892725957273
 40
0.1488054069163636
 40
0.2291724603079967
 40
0.3115652575978911
 40
0.3969600311379816
 40
0.4847691432648292
 40
0.5707826311793051
 40
0.6591664434836098
 40
0.7461833123618621
 40
0.8361404262887485
 40
0.903526455737445
 40
0.9728514054414621
 40
1.0
 40
1.0
 40
1.0
 40
1.0
 10
939.9272221915865
 20
889.8694153294082
 30
0.0
 10
939.685479520526
 20
889.5285090637977
 30
0.0
 10
939.1959847239984
 20
888.8382219813069
 30
0.0
 10
938.1863410887767
 20
887.0961692372368
 30
0.0
 10
937.0590050510332
 20
884.80521788004
 30
0.0
 10
935.8895662070963
 20
881.882255439396
 30
0.0
 10
934.6667337819927
 20
878.4088353334367
 30
0.0
 10
933.3740608051365
 20
874.511604284408
 30
0.0
 10
931.9464315256881
 20
870.3379179663115
 30
0.0
 10
930.4740577557033
 20
866.0499531393165
 30
0.0
 10
929.0985737082655
 20
861.6429724368364
 30
0.0
 10
928.110673861419
 20
857.6099845601784
 30
0.0
 10
927.5674864726225
 20
854.0186299034733
 30
0.0
 10
927.43624626242
 20
851.5712138623702
 30
0.0
 10
927.487583196053
 20
850.2486069025849
 30
0.0
 10
927.5020299089599
 20
849.8764124280689
 30
0.0
  0
ARC
  5
224
330
1F
100
AcDbEntity
  8
0
  6
Continuous
 62
     8
370
    18
100
AcDbCircle
 10
927.6374105231
 20
845.1287475503
 30
0.0
 40
4.749594688239669
100
AcDbArc
 50
91.6333580123
 51
99.9672112785
  0
ARC
  5
225
330
1F
100
AcDbEntity
  8
0
  6
Continuous
 62
     8
370
    18
100
AcDbCircle
 10
940.0401375392
 20
892.9550179132
 30
0.0
 40
3.087667919413808
100
AcDbArc
 50
194.2775571615
 51
267.9042384386
  0
SPLINE
  5
226
330
1F
100
AcDbEntity
  8
0
  6
Continuous
 62
     8
370
    18
100
AcDbSpline
210
0.0
220
0.0
230
1.0
 70
     8
 71
     3
 72
     9
 73
     5
 74
     0
 42
0.000000001
 43
0.00000001
 40
0.0
 40
0.0
 40
0.0
 40
0.0
 40
0.4955319650024667
 40
1.0
 40
1.0
 40
1.0
 40
1.0
 10
940.5085589489831
 20
890.5350816168896
 30
0.0
 10
940.4623038404064
 20
890.5069940980624
 30
0.0
 10
940.3689594916189
 20
890.4503125501282
 30
0.0
 10
940.0753425521051
 20
890.0641978523034
 30
0.0
 10
939.9272221915865
 20
889.8694153294082
 30
0.0
  0
SPLINE
  5
227
330
1F
100
AcDbEntity
  8
0
  6
Continuous
 62
     8
370
    18
100
AcDbSpline
210
0.0
220
0.0
230
1.0
 70
     8
 71
     3
 72
     9
 73
     5
 74
     0
 42
0.000000001
 43
0.00000001
 40
0.0
 40
0.0
 40
0.0
 40
0.0
 40
0.8724809942930267
 40
1.0
 40
1.0
 40
1.0
 40
1.0
 10
923.8394263109067
 20
841.3056528372458
 30
0.0
 10
923.7729510192274
 20
840.9552415703439
 30
0.0
 10
923.6967599135025
 20
840.5536153238194
 30
0.0
 10
923.6204548662172
 20
840.5371777233564
 30
0.0
 10
923.6107245224568
 20
840.5350816168891
 30
0.0
  0
SPLINE
  5
228
330
1F
100
AcDbEntity
  8
0
  6
Continuous
 62
     8
370
    18
100
AcDbSpline
210
0.0
220
0.0
230
1.0
 70
     8
 71
     3
 72
    13
 73
     9
 74
     0
 42
0.000000001
 43
0.00000001
 40
0.0
 40
0.0
 40
0.0
 40
0.0
 40
0.1645623234208166
 40
0.332800939901234
 40
0.5301300948724881
 40
0.7327153280276617
 40
0.9440961992823407
 40
1.0
 40
1.0
 40
1.0
 40
1.0
 10
927.5020299089599
 20
849.8764124280689
 30
0.0
 10
927.5125815830143
 20
849.1807162971099
 30
0.0
 10
927.5339206536461
 20
847.7737823072637
 30
0.0
 10
927.2021925887218
 20
845.8288197170061
 30
0.0
 10
926.5385785511555
 20
844.0562736346366
 30
0.0
 10
925.5583102484296
 20
842.561636649576
 30
0.0
 10
924.3689320930889
 20
841.7482344615221
 30
0.0
 10
923.9310180235677
 20
841.3822087698225
 30
0.0
 10
923.8394263109068
 20
841.3056528372456
 30
0.0
  0
SPLINE
  5
229
330
1F
100
AcDbEntity
  8
0
  6
Continuous
 62
     8
370
    18
100
AcDbSpline
210
0.0
220
0.0
230
1.0
 70
     8
 71
     3
 72
    12
 73
     8
 74
     0
 42
0.000000001
 43
0.00000001
 40
0.0
 40
0.0
 40
0.0
 40
0.0
 40
0.2584254149750765
 40
0.5253727836647157
 40
0.6325637335471939
 40
0.8141005554129511
 40
1.0
 40
1.0
 40
1.0
 40
1.0
 10
923.6107245224584
 20
841.304485965542
 30
0.0
 10
924.1170301694146
 20
841.6867115426038
 30
0.0
 10
925.146337628018
 20
842.4637671407465
 30
0.0
 10
925.9924486777863
 20
844.0788433457644
 30
0.0
 10
926.5036677576271
 20
845.8051328136738
 30
0.0
 10
926.7858845484265
 20
847.4871552012536
 30
0.0
 10
926.761572176015
 20
849.0210726988321
 30
0.0
 10
926.7492716576925
 20
849.7971376572398
 30
0.0
  0
SPLINE
  5
22A
330
1F
100
AcDbEntity
  8
0
  6
Continuous
 62
     8
370
    18
100
AcDbSpline
210
0.0
220
0.0
230
1.0
 70
     8
 71
     3
 72
    10
 73
     6
 74
     0
 42
0.000000001
 43
0.00000001
 40
0.0
 40
0.0
 40
0.0
 40
0.0
 40
0.5660710179693638
 40
0.9956845546965855
 40
1.0
 40
1.0
 40
1.0
 40
1.0
 10
923.6107245224584
 20
841.304485965542
 30
0.0
 10
922.9365587164208
 20
841.0545660995941
 30
0.0
 10
921.7507419918969
 20
840.6149722279118
 30
0.0
 10
920.3139859599532
 20
840.5353978776328
 30
0.0
 10
919.6639713570756
 20
840.5350847311465
 30
0.0
 10
919.6575069295279
 20
840.5350816168892
 30
0.0
  0
SPLINE
  5
22B
330
1F
100
AcDbEntity
  8
0
  6
Continuous
 62
     8
370
    18
100
AcDbSpline
210
0.0
220
0.0
230
1.0
 70
     8
 71
     3
 72
    14
 73
    10
 74
     0
 42
0.000000001
 43
0.00000001
 40
0.0
 40
0.0
 40
0.0
 40
0.0
 40
0.066523266701813
 40
0.1346138509585627
 40
0.270526373188602
 40
0.4679094570369228
 40
0.6697252416072476
 40
0.8332896955030696
 40
1.0
 40
1.0
 40
1.0
 40
1.0
 10
923.7990671717688
 20
841.3057140000622
 30
0.0
 10
923.8862051199997
 20
841.3973707378932
 30
0.0
 10
924.0625340250209
 20
841.5828436867944
 30
0.0
 10
924.5971741485217
 20
842.0081613878475
 30
0.0
 10
925.2669939078801
 20
842.7654349873078
 30
0.0
 10
926.0255536973773
 20
844.0637004205986
 30
0.0
 10
926.5592238462068
 20
845.8014491949758
 30
0.0
 10
926.840993403205
 20
847.7290146512619
 30
0.0
 10
926.8239379241973
 20
849.1097254449023
 30
0.0
 10
926.8153289584
 20
849.8066564424454
 30
0.0
  0
ARC
  5
22C
330
1F
100
AcDbEntity
  8
0
  6
Continuous
 62
     8
370
    18
100
AcDbCircle
 10
923.610724726
 20
855.7480477637
 30
0.0
 40
14.4435617981984
100
AcDbArc
 50
269.9999991928
 51
270.7471517929
  0
ARC
  5
22D
330
1F
100
AcDbEntity
  8
0
  6
Continuous
 62
     8
370
    18
100
AcDbCircle
 10
923.8145611645
 20
838.2138400562
 30
0.0
 40
3.091912765331431
100
AcDbArc
 50
89.5392226717
 51
90.2871180961
  0
LINE
  5
22E
330
1F
100
AcDbEntity
  8
0
  6
Continuous
 62
     8
370
    18
100
AcDbLine
 10
923.6107245225
 20
840.5350816169
 30
0.0
 11
923.6107245225
 21
841.3044859655
 31
0.0
  0
SPLINE
  5
22F
330
1F
100
AcDbEntity
  8
0
  6
Continuous
 62
     8
370
    18
100
AcDbSpline
210
0.0
220
0.0
230
1.0
 70
     8
 71
     3
 72
     9
 73
     5
 74
     0
 42
0.000000001
 43
0.00000001
 40
0.0
 40
0.0
 40
0.0
 40
0.0
 40
0.4953932977280081
 40
1.0
 40
1.0
 40
1.0
 40
1.0
 10
937.0478402499754
 20
892.1935390141182
 30
0.0
 10
937.1671152020729
 20
892.4530121128231
 30
0.0
 10
937.4078834010871
 20
892.9767840328204
 30
0.0
 10
937.4850756048971
 20
893.1359605659621
 30
0.0
 10
937.5240273083028
 20
893.2162821114298
 30
0.0
  0
LINE
  5
230
330
1F
100
AcDbEntity
  8
0
  6
Continuous
 62
     8
370
    18
100
AcDbLine
 10
1140.6107245225
 20
915.2588221385
 30
0.0
 11
1142.6107245225
 21
915.2588221385
 31
0.0
  0
LINE
  5
231
330
1F
100
AcDbEntity
  8
0
  6
Continuous
 62
     8
370
    18
100
AcDbLine
 10
1142.6107245225
 20
913.4462065644
 30
0.0
 11
1140.6107245225
 21
913.4462065644
 31
0.0
  0
LINE
  5
232
330
1F
100
AcDbEntity
  8
0
  6
Continuous
 62
     8
370
    18
100
AcDbLine
 10
1140.6107245225
 20
906.1879072798
 30
0.0
 11
1142.6107245225
 21
906.1879072798
 31
0.0
  0
LINE
  5
233
330
1F
100
AcDbEntity
  8
0
  6
Continuous
 62
     8
370
    18
100
AcDbLine
 10
1142.6107245225
 20
904.3752917058
 30
0.0
 11
1140.6107245225
 21
904.3752917058
 31
0.0
  0
LINE
  5
234
330
1F
100
AcDbEntity
  8
0
  6
Continuous
 62
     8
370
    18
100
AcDbLine
 10
1140.6107245225
 20
870.0846816169
 30
0.0
 11
1142.6107245225
 21
870.0846816169
 31
0.0
  0
LINE
  5
235
330
1F
100
AcDbEntity
  8
0
  6
Continuous
 62
     8
370
    18
100
AcDbLine
 10
558.6107245225
 20
915.2588221385
 30
0.0
 11
560.6107245225
 21
915.2588221385
 31
0.0
  0
LINE
  5
236
330
1F
100
AcDbEntity
  8
0
  6
Continuous
 62
     8
370
    18
100
AcDbLine
 10
560.6107245225
 20
913.4462065644
 30
0.0
 11
558.6107245225
 21
913.4462065644
 31
0.0
  0
LINE
  5
237
330
1F
100
AcDbEntity
  8
0
  6
Continuous
 62
     8
370
    18
100
AcDbLine
 10
558.6107245225
 20
906.1879072798
 30
0.0
 11
560.6107245225
 21
906.1879072798
 31
0.0
  0
LINE
  5
238
330
1F
100
AcDbEntity
  8
0
  6
Continuous
 62
     8
370
    18
100
AcDbLine
 10
560.6107245225
 20
904.3752917058
 30
0.0
 11
558.6107245225
 21
904.3752917058
 31
0.0
  0
LINE
  5
239
330
1F
100
AcDbEntity
  8
0
  6
Continuous
 62
     8
370
    18
100
AcDbLine
 10
558.6107245225
 20
870.0846816169
 30
0.0
 11
560.6107245225
 21
870.0846816169
 31
0.0
  0
LINE
  5
23A
330
1F
100
AcDbEntity
  8
0
  6
Continuous
 62
     8
370
    18
100
AcDbLine
 10
538.1107245225
 20
921.9846816169
 30
0.0
 11
538.1107245225
 21
920.9846816169
 31
0.0
  0
LINE
  5
23B
330
1F
100
AcDbEntity
  8
0
  6
Continuous
 62
     8
370
    18
100
AcDbLine
 10
558.6107245225
 20
922.9846816169
 30
0.0
 11
528.1107245225
 21
922.9846816169
 31
0.0
  0
LINE
  5
23C
330
1F
100
AcDbEntity
  8
0
  6
Continuous
 62
     8
370
    18
100
AcDbLine
 10
1163.1107245225
 20
920.9846816169
 30
0.0
 11
1163.1107245225
 21
921.9846816169
 31
0.0
  0
LINE
  5
23D
330
1F
100
AcDbEntity
  8
0
  6
Continuous
 62
     8
370
    18
100
AcDbLine
 10
1173.1107245225
 20
922.9846816169
 30
0.0
 11
1142.6107245225
 21
922.9846816169
 31
0.0
  0
SPLINE
  5
23E
330
1F
100
AcDbEntity
  8
0
  6
Continuous
 62
     7
370
    35
100
AcDbSpline
210
0.0
220
0.0
230
1.0
 70
     8
 71
     3
 72
    21
 73
    17
 74
     0
 42
0.000000001
 43
0.00000001
 40
0.0
 40
0.0
 40
0.0
 40
0.0
 40
0.018473838459997
 40
0.1054422081793471
 40
0.1964001193824332
 40
0.2423891610253004
 40
0.2870657812191219
 40
0.3084913154219925
 40
0.3290669834332108
 40
0.3685279173265541
 40
0.44451174777292
 40
0.5205159150681126
 40
0.6003098551461902
 40
0.7801149107653754
 40
0.9937039736259763
 40
1.0
 40
1.0
 40
1.0
 40
1.0
 10
1447.185536391106
 20
903.239323938973
 30
0.0
 10
1447.150319351578
 20
903.3239487407271
 30
0.0
 10
1446.949312808111
 20
903.8069575092085
 30
0.0
 10
1446.319632354715
 20
904.5771010296197
 30
0.0
 10
1445.458084344453
 20
905.2860163861623
 30
0.0
 10
1444.679893689677
 20
905.7312109510844
 30
0.0
 10
1444.148169703401
 20
905.9460659621241
 30
0.0
 10
1443.886306646009
 20
906.292218521522
 30
0.0
 10
1443.760947974456
 20
906.6669995426612
 30
0.0
 10
1443.809571306142
 20
907.2946812409455
 30
0.0
 10
1443.783220392001
 20
908.0916851641516
 30
0.0
 10
1443.7916548282
 20
908.8747547351744
 30
0.0
 10
1443.788603897498
 20
909.7166916138679
 30
0.0
 10
1443.790369735808
 20
910.3025880916508
 30
0.0
 10
1443.789819228621
 20
910.4971637520194
 30
0.0
 10
1443.789821630872
 20
910.4386409280239
 30
0.0
 10
1443.789821699656
 20
910.4369652289365
 30
0.0
  0
ARC
  5
23F
330
1F
100
AcDbEntity
  8
0
  6
Continuous
 62
     7
370
    35
100
AcDbCircle
 10
1395.3532457758
 20
855.5350370489
 30
0.0
 40
14.99995543246103
100
AcDbArc
 50
235.2278938985
 51
269.9820874844
  0
ARC
  5
240
330
1F
100
AcDbEntity
  8
0
  6
Continuous
 62
     7
370
    35
100
AcDbCircle
 10
1435.2263895976
 20
855.5350364391
 30
0.0
 40
14.99995482260155
100
AcDbArc
 50
270.017911725
 51
305.1236860193
  0
SPLINE
  5
241
330
1F
100
AcDbEntity
  8
0
  6
Continuous
 62
     7
370
    35
100
AcDbSpline
210
0.0
220
0.0
230
1.0
 70
     8
 71
     3
 72
    14
 73
    10
 74
     0
 42
0.000000001
 43
0.00000001
 40
0.0
 40
0.0
 40
0.0
 40
0.0
 40
0.1910307360170582
 40
0.510095634389845
 40
0.669873021395563
 40
0.7584351360272235
 40
0.8292863577629644
 40
0.9200950248269746
 40
1.0
 40
1.0
 40
1.0
 40
1.0
 10
1447.647897548594
 20
902.6394226478725
 30
0.0
 10
1447.60143316074
 20
902.6842041530851
 30
0.0
 10
1447.477362647831
 20
902.8037809855186
 30
0.0
 10
1447.343803600654
 20
902.9863717654442
 30
0.0
 10
1447.241689320637
 20
903.1431034231639
 30
0.0
 10
1447.20058059872
 20
903.2127445415143
 30
0.0
 10
1447.181994844984
 20
903.2454641991684
 30
0.0
 10
1447.172776437279
 20
903.2623457288059
 30
0.0
 10
1447.173451474942
 20
903.261094405086
 30
0.0
 10
1447.173767436027
 20
903.2605087050242
 30
0.0
  0
SPLINE
  5
242
330
1F
100
AcDbEntity
  8
0
  6
Continuous
 62
     7
370
    35
100
AcDbSpline
210
0.0
220
0.0
230
1.0
 70
     8
 71
     3
 72
    14
 73
    10
 74
     0
 42
0.000000001
 43
0.00000001
 40
0.0
 40
0.0
 40
0.0
 40
0.0
 40
0.0318510699560325
 40
0.1445183584970235
 40
0.2397810598322304
 40
0.32608347415275
 40
0.5119178317007428
 40
0.8180500484931172
 40
1.0
 40
1.0
 40
1.0
 40
1.0
 10
1383.405103092019
 20
903.2588830975798
 30
0.0
 10
1383.405946635426
 20
903.2605316581396
 30
0.0
 10
1383.409774058136
 20
903.268011697784
 30
0.0
 10
1383.400710982458
 20
903.2508289576739
 30
0.0
 10
1383.379646238466
 20
903.2136346446765
 30
0.0
 10
1383.327127091073
 20
903.125196434693
 30
0.0
 10
1383.213986207328
 20
902.9559959022923
 30
0.0
 10
1383.071581937117
 20
902.7652907920102
 30
0.0
 10
1382.942864836866
 20
902.6497339277311
 30
0.0
 10
1382.89488096925
 20
902.6066560051651
 30
0.0
  0
SPLINE
  5
243
330
1F
100
AcDbEntity
  8
0
  6
Continuous
 62
     7
370
    35
100
AcDbSpline
210
0.0
220
0.0
230
1.0
 70
     8
 71
     3
 72
    12
 73
     8
 74
     0
 42
0.000000001
 43
0.00000001
 40
0.0
 40
0.0
 40
0.0
 40
0.0
 40
0.1423628141181953
 40
0.2495218665569
 40
0.3688819399722622
 40
0.6085285389097161
 40
1.0
 40
1.0
 40
1.0
 40
1.0
 10
1442.937219905046
 20
842.6834045262556
 30
0.0
 10
1442.937664868509
 20
842.6836637964642
 30
0.0
 10
1442.938444763981
 20
842.684118224025
 30
0.0
 10
1442.95389545332
 20
842.6929404305796
 30
0.0
 10
1442.986703154341
 20
842.7110450395526
 30
0.0
 10
1443.05415803946
 20
842.748490056134
 30
0.0
 10
1443.11580026853
 20
842.7728981148044
 30
0.0
 10
1443.154035861849
 20
842.7880380054132
 30
0.0
  0
SPLINE
  5
244
330
1F
100
AcDbEntity
  8
0
  6
Continuous
 62
     7
370
    35
100
AcDbSpline
210
0.0
220
0.0
230
1.0
 70
     8
 71
     3
 72
    13
 73
     9
 74
     0
 42
0.000000001
 43
0.00000001
 40
0.0
 40
0.0
 40
0.0
 40
0.0
 40
0.2312645379166087
 40
0.5779681621398548
 40
0.7146434850706689
 40
0.8157376923058997
 40
0.9213272834537057
 40
1.0
 40
1.0
 40
1.0
 40
1.0
 10
1387.442415477418
 20
842.7848993144239
 30
0.0
 10
1387.463420253358
 20
842.7757951954934
 30
0.0
 10
1387.515914647248
 20
842.753042503128
 30
0.0
 10
1387.578660765661
 20
842.7188763235979
 30
0.0
 10
1387.620844277308
 20
842.6956809729016
 30
0.0
 10
1387.636213122258
 20
842.6869677374013
 30
0.0
 10
1387.642833871865
 20
842.6831672102021
 30
0.0
 10
1387.642423656572
 20
842.6834036247668
 30
0.0
 10
1387.642248510869
 20
842.683504564434
 30
0.0
  0
LINE
  5
245
330
1F
100
AcDbEntity
  8
0
  6
Continuous
 62
     7
370
    35
100
AcDbLine
 10
1387.4536252422
 20
842.7976146582
 30
0.0
 11
1387.3273374055
 21
842.8763162245
 31
0.0
  0
ARC
  5
246
330
1F
100
AcDbEntity
  8
0
  6
Continuous
 62
     7
370
    35
100
AcDbCircle
 10
1446.7898175831
 20
853.5350816169
 30
0.0
 40
13.00000000000011
100
AcDbArc
 50
270.0
 51
360.0
  0
LINE
  5
247
330
1F
100
AcDbEntity
  8
0
  6
Continuous
 62
     7
370
    35
100
AcDbLine
 10
1434.7885171319
 20
840.5350816169
 30
0.0
 11
1446.7898175831
 21
840.5350816169
 31
0.0
  0
SPLINE
  5
248
330
1F
100
AcDbEntity
  8
0
  6
Continuous
 62
     7
370
    35
100
AcDbSpline
210
0.0
220
0.0
230
1.0
 70
     8
 71
     3
 72
    10
 73
     6
 74
     0
 42
0.000000001
 43
0.00000001
 40
0.0
 40
0.0
 40
0.0
 40
0.0
 40
0.2439500886949299
 40
0.6120271324950187
 40
0.9999999999999999
 40
0.9999999999999999
 40
0.9999999999999999
 40
0.9999999999999999
 10
1443.789837223758
 20
907.1200495546003
 30
0.0
 10
1443.789835802081
 20
907.5988782271412
 30
0.0
 10
1443.789832235347
 20
908.8001737092595
 30
0.0
 10
1443.789825961533
 20
910.1671259972566
 30
0.0
 10
1443.789824509128
 20
910.7076880255042
 30
0.0
 10
1443.789823763815
 20
910.9850816168896
 30
0.0
  0
LINE
  5
249
330
1F
100
AcDbEntity
  8
0
  6
Continuous
 62
     7
370
    35
100
AcDbLine
 10
1480.7898175831
 20
920.9846816169
 30
0.0
 11
1480.7648175831
 21
920.9846816169
 31
0.0
  0
LINE
  5
24A
330
1F
100
AcDbEntity
  8
0
  6
Continuous
 62
     7
370
    35
100
AcDbLine
 10
1480.7898175831
 20
921.9846816169
 30
0.0
 11
1480.7648175831
 21
921.9846816169
 31
0.0
  0
LINE
  5
24B
330
1F
100
AcDbEntity
  8
0
  6
Continuous
 62
     7
370
    35
100
AcDbLine
 10
1480.7898175831
 20
920.9846816169
 30
0.0
 11
1480.7898175831
 21
921.9846816169
 31
0.0
  0
ARC
  5
24C
330
1F
100
AcDbEntity
  8
0
  6
Continuous
 62
     7
370
    35
100
AcDbCircle
 10
1451.2898175831
 20
922.9846816169
 30
0.0
 40
1.000000000000114
100
AcDbArc
 50
180.0
 51
270.0
  0
LINE
  5
24D
330
1F
100
AcDbEntity
  8
0
  6
Continuous
 62
     7
370
    35
100
AcDbLine
 10
1448.2898175831
 20
919.6466001062
 30
0.0
 11
1448.2898175831
 21
920.9846816169
 31
0.0
  0
LINE
  5
24E
330
1F
100
AcDbEntity
  8
0
  6
Continuous
 62
     7
370
    35
100
AcDbLine
 10
1365.7648175831
 20
964.4846816169
 30
0.0
 11
1365.7898175831
 21
964.4846816169
 31
0.0
  0
LINE
  5
24F
330
1F
100
AcDbEntity
  8
0
  6
Continuous
 62
     7
370
    35
100
AcDbLine
 10
1365.7898175831
 20
934.9846816169
 30
0.0
 11
1365.7898175831
 21
964.4846816169
 31
0.0
  0
ARC
  5
250
330
1F
100
AcDbEntity
  8
0
  6
Continuous
 62
     7
370
    35
100
AcDbCircle
 10
1366.7898175831
 20
934.9846816169
 30
0.0
 40
1.0
100
AcDbArc
 50
180.0
 51
270.0
  0
LINE
  5
251
330
1F
100
AcDbEntity
  8
0
  6
Continuous
 62
     7
370
    35
100
AcDbLine
 10
1382.2898175831
 20
920.9846816169
 30
0.0
 11
1382.2898175831
 21
919.6466001062
 31
0.0
  0
LWPOLYLINE
  5
252
330
1F
100
AcDbEntity
  8
0
  6
Continuous
 62
     7
370
    35
100
AcDbPolyline
 90
        3
 70
   128
 43
0.0
 10
1382.2898175831
 20
919.6466001062
 10
1382.3255298162
 20
919.2703374736
 10
1382.3898175831
 20
919.0221003063
  0
ARC
  5
253
330
1F
100
AcDbEntity
  8
0
  6
Continuous
 62
     7
370
    35
100
AcDbCircle
 10
1446.2898175831
 20
919.6466001062
 30
0.0
 40
1.999999999999859
100
AcDbArc
 50
337.6683549908
 51
0.0
  0
LINE
  5
254
330
1F
100
AcDbEntity
  8
0
  6
Continuous
 62
     7
370
    35
100
AcDbLine
 10
1443.2898175831
 20
911.7230894748
 30
0.0
 11
1443.2898175831
 21
910.9850816169
 31
0.0
  0
LINE
  5
255
330
1F
100
AcDbEntity
  8
0
  6
Continuous
 62
     7
370
    35
100
AcDbLine
 10
1387.2898175831
 20
911.6997740919
 30
0.0
 11
1387.2898175831
 21
910.9850816169
 31
0.0
  0
LINE
  5
256
330
1F
100
AcDbEntity
  8
0
  6
Continuous
 62
     7
370
    35
100
AcDbLine
 10
1387.2898175831
 20
910.9850816169
 30
0.0
 11
1388.8224805419
 21
910.9850816169
 31
0.0
  0
LINE
  5
257
330
1F
100
AcDbEntity
  8
0
  6
Continuous
 62
     7
370
    35
100
AcDbLine
 10
1441.7071546243
 20
910.9850816169
 30
0.0
 11
1443.2885634591
 21
910.9850816169
 31
0.0
  0
SPLINE
  5
258
330
1F
100
AcDbEntity
  8
0
  6
Continuous
 62
     7
370
    35
100
AcDbSpline
210
0.0
220
0.0
230
1.0
 70
     8
 71
     3
 72
    12
 73
     8
 74
     0
 42
0.000000001
 43
0.00000001
 40
0.0
 40
0.0
 40
0.0
 40
0.0
 40
0.0000113964157658
 40
0.0165615426249112
 40
0.2254762501766455
 40
0.6569695733823875
 40
1.0
 40
1.0
 40
1.0
 40
1.0
 10
1447.182444834519
 20
902.9411512215481
 30
0.0
 10
1447.182450025825
 20
902.941137412893
 30
0.0
 10
1447.189994156062
 20
902.9210703466706
 30
0.0
 10
1447.294051122116
 20
902.6443713677071
 30
0.0
 10
1447.64638891541
 20
901.7081356732451
 30
0.0
 10
1448.226247737917
 20
900.1331546262327
 30
0.0
 10
1448.661029799427
 20
898.8813902714569
 30
0.0
 10
1448.853591326532
 20
898.3269937655507
 30
0.0
  0
SPLINE
  5
259
330
1F
100
AcDbEntity
  8
0
  6
Continuous
 62
     7
370
    35
100
AcDbSpline
210
0.0
220
0.0
230
1.0
 70
     8
 71
     3
 72
    15
 73
    11
 74
     0
 42
0.000000001
 43
0.00000001
 40
0.0
 40
0.0
 40
0.0
 40
0.0
 40
0.1214527241786875
 40
0.2436356162157024
 40
0.3679634748124441
 40
0.492999645184968
 40
0.618586543380512
 40
0.7450337263104021
 40
0.8719902588119044
 40
1.0
 40
1.0
 40
1.0
 40
1.0
 10
1452.028171631725
 20
887.5480433504722
 30
0.0
 10
1452.359617829983
 20
886.0746565955313
 30
0.0
 10
1453.024502864889
 20
883.1190251562898
 30
0.0
 10
1453.589207843939
 20
878.5740711620548
 30
0.0
 10
1453.850822523866
 20
873.9603399542641
 30
0.0
 10
1453.756856085196
 20
869.2962319750666
 30
0.0
 10
1453.293706502879
 20
864.6272123257446
 30
0.0
 10
1452.432232017556
 20
859.9921877765133
 30
0.0
 10
1451.192038395837
 20
855.4066813262052
 30
0.0
 10
1450.013148503521
 20
852.4626523013852
 30
0.0
 10
1449.421268692043
 20
850.9845572260488
 30
0.0
  0
SPLINE
  5
25A
330
1F
100
AcDbEntity
  8
0
  6
Continuous
 62
     7
370
    35
100
AcDbSpline
210
0.0
220
0.0
230
1.0
 70
    24
 71
     3
 72
    10
 73
     6
 74
     0
 42
0.000000001
 43
0.00000001
 40
0.0
 40
0.0
 40
0.0
 40
0.0
 40
0.1892744005188219
 40
0.553059420347438
 40
1.0
 40
1.0
 40
1.0
 40
1.0
 10
1415.289817583123
 20
880.3137335435314
 30
0.0
 10
1415.289817583123
 20
879.7834802846986
 30
0.0
 10
1415.289817583123
 20
878.2340813212701
 30
0.0
 10
1415.289817583123
 20
875.4217401668529
 30
0.0
 10
1415.289817583123
 20
873.1511320041596
 30
0.0
 10
1415.289817583123
 20
871.8993805742708
 30
0.0
  0
SPLINE
  5
25B
330
1F
100
AcDbEntity
  8
0
  6
Continuous
 62
     7
370
    35
100
AcDbSpline
210
0.0
220
0.0
230
1.0
 70
    24
 71
     3
 72
    10
 73
     6
 74
     0
 42
0.000000001
 43
0.00000001
 40
0.0
 40
0.0
 40
0.0
 40
0.0
 40
0.3006654806480862
 40
0.6482485604421757
 40
0.9999999999999999
 40
0.9999999999999999
 40
0.9999999999999999
 40
0.9999999999999999
 10
1415.289817583123
 20
868.0846816168902
 30
0.0
 10
1415.289817583123
 20
866.0798998382155
 30
0.0
 10
1415.289817583123
 20
861.7574984131323
 30
0.0
 10
1415.289817583123
 20
855.2696373114004
 30
0.0
 10
1415.289817583123
 20
850.9791290084398
 30
0.0
 10
1415.289817583123
 20
848.8210881421035
 30
0.0
  0
SPLINE
  5
25C
330
1F
100
AcDbEntity
  8
0
  6
Continuous
 62
     7
370
    35
100
AcDbSpline
210
0.0
220
0.0
230
1.0
 70
    24
 71
     3
 72
    13
 73
     9
 74
     0
 42
0.000000001
 43
0.00000001
 40
0.0
 40
0.0
 40
0.0
 40
0.0
 40
0.3691963150658381
 40
0.7482499823834032
 40
0.8262738878666143
 40
0.904076689582327
 40
0.9808985752244039
 40
1.0
 40
1.0
 40
1.0
 40
1.0
 10
1443.789817583122
 20
910.9850816168899
 30
0.0
 10
1443.801644005076
 20
910.98508161689
 30
0.0
 10
1443.825612608384
 20
910.98508161689
 30
0.0
 10
1443.691178071381
 20
910.9850816168897
 30
0.0
 10
1443.855379395109
 20
910.98508161689
 30
0.0
 10
1443.540360695473
 20
910.9850816168895
 30
0.0
 10
1442.740324763425
 20
910.9850816168899
 30
0.0
 10
1441.878726605454
 20
910.98508161689
 30
0.0
 10
1441.707154624362
 20
910.98508161689
 30
0.0
  0
SPLINE
  5
25D
330
1F
100
AcDbEntity
  8
0
  6
Continuous
 62
     7
370
    35
100
AcDbSpline
210
0.0
220
0.0
230
1.0
 70
     8
 71
     3
 72
    12
 73
     8
 74
     0
 42
0.000000001
 43
0.00000001
 40
0.0
 40
0.0
 40
0.0
 40
0.0
 40
0.000011396415745
 40
0.0165615426248907
 40
0.2254762501766299
 40
0.6569695733823796
 40
1.0
 40
1.0
 40
1.0
 40
1.0
 10
1383.397190331727
 20
902.9411512215474
 30
0.0
 10
1383.39718514042
 20
902.9411374128923
 30
0.0
 10
1383.389641010174
 20
902.9210703466416
 30
0.0
 10
1383.285584044188
 20
902.6443713678826
 30
0.0
 10
1382.93324625078
 20
901.7081356730788
 30
0.0
 10
1382.353387428341
 20
900.1331546262725
 30
0.0
 10
1381.918605366823
 20
898.8813902714686
 30
0.0
 10
1381.726043839714
 20
898.32699376555
 30
0.0
  0
SPLINE
  5
25E
330
1F
100
AcDbEntity
  8
0
  6
Continuous
 62
     7
370
    35
100
AcDbSpline
210
0.0
220
0.0
230
1.0
 70
     8
 71
     3
 72
     9
 73
     5
 74
     0
 42
0.000000001
 43
0.00000001
 40
0.0
 40
0.0
 40
0.0
 40
0.0
 40
0.156290395376734
 40
1.0
 40
1.0
 40
1.0
 40
1.0
 10
1383.406486118477
 20
903.2607519199155
 30
0.0
 10
1383.412281472342
 20
903.2727449580747
 30
0.0
 10
1383.449362150594
 20
903.3494805638048
 30
0.0
 10
1383.455262767729
 20
903.3550544411381
 30
0.0
 10
1383.460241175079
 20
903.3597571749791
 30
0.0
  0
SPLINE
  5
25F
330
1F
100
AcDbEntity
  8
0
  6
Continuous
 62
     7
370
    35
100
AcDbSpline
210
0.0
220
0.0
230
1.0
 70
     8
 71
     3
 72
    11
 73
     7
 74
     0
 42
0.000000001
 43
0.00000001
 40
0.0
 40
0.0
 40
0.0
 40
0.0
 40
0.0402999249223814
 40
0.2187640754576702
 40
0.4992077406780047
 40
1.0
 40
1.0
 40
1.0
 40
1.0
 10
1386.769166477832
 20
906.8780367249788
 30
0.0
 10
1386.776742304131
 20
906.9327509733429
 30
0.0
 10
1386.817866912665
 20
907.229761748941
 30
0.0
 10
1386.772088879298
 20
907.9162659195796
 30
0.0
 10
1386.799920717021
 20
909.2287807568507
 30
0.0
 10
1386.793764119801
 20
910.2990265934371
 30
0.0
 10
1386.789817583122
 20
910.9850816168899
 30
0.0
  0
SPLINE
  5
260
330
1F
100
AcDbEntity
  8
0
  6
Continuous
 62
     7
370
    35
100
AcDbSpline
210
0.0
220
0.0
230
1.0
 70
    24
 71
     3
 72
    13
 73
     9
 74
     0
 42
0.000000001
 43
0.00000001
 40
0.0
 40
0.0
 40
0.0
 40
0.0
 40
0.369905629579896
 40
0.7496875497452388
 40
0.827861357831332
 40
0.9058136373566525
 40
0.9827831162337083
 40
1.0
 40
1.0
 40
1.0
 40
1.0
 10
1386.789817583122
 20
910.9850816168899
 30
0.0
 10
1386.77791335579
 20
910.98508161689
 30
0.0
 10
1386.753787064361
 20
910.9850816168902
 30
0.0
 10
1386.889106204391
 20
910.9850816168903
 30
0.0
 10
1386.723824649662
 20
910.9850816168907
 30
0.0
 10
1387.040943516232
 20
910.9850816168897
 30
0.0
 10
1387.826336002305
 20
910.9850816168899
 30
0.0
 10
1388.668530766583
 20
910.98508161689
 30
0.0
 10
1388.822480541882
 20
910.98508161689
 30
0.0
  0
SPLINE
  5
261
330
1F
100
AcDbEntity
  8
0
  6
Continuous
 62
     7
370
    35
100
AcDbSpline
210
0.0
220
0.0
230
1.0
 70
     8
 71
     3
 72
    15
 73
    11
 74
     0
 42
0.000000001
 43
0.00000001
 40
0.0
 40
0.0
 40
0.0
 40
0.0
 40
0.1214527241786881
 40
0.2436356162157029
 40
0.3679634748124445
 40
0.4929996451849683
 40
0.6185865433805124
 40
0.7450337263104025
 40
0.871990258811905
 40
1.0
 40
1.0
 40
1.0
 40
1.0
 10
1378.551463534519
 20
887.5480433504716
 30
0.0
 10
1378.220017336261
 20
886.0746565955308
 30
0.0
 10
1377.555132301355
 20
883.1190251562891
 30
0.0
 10
1376.990427322306
 20
878.5740711620542
 30
0.0
 10
1376.728812642379
 20
873.9603399542634
 30
0.0
 10
1376.822779081049
 20
869.296231975066
 30
0.0
 10
1377.285928663366
 20
864.6272123257439
 30
0.0
 10
1378.147403148688
 20
859.9921877765127
 30
0.0
 10
1379.387596770408
 20
855.4066813262045
 30
0.0
 10
1380.566486662724
 20
852.4626523013845
 30
0.0
 10
1381.158366474202
 20
850.9845572260481
 30
0.0
  0
LINE
  5
262
330
1F
100
AcDbEntity
  8
0
  6
Continuous
 62
     7
370
    35
100
AcDbLine
 10
1388.2144049563
 20
842.4321931586
 30
0.0
 11
1387.698967316
 21
842.6507112
 31
0.0
  0
SPLINE
  5
263
330
1F
100
AcDbEntity
  8
0
  6
Continuous
 62
     7
370
    35
100
AcDbSpline
210
0.0
220
0.0
230
1.0
 70
    24
 71
     3
 72
    14
 73
    10
 74
     0
 42
0.000000001
 43
0.00000001
 40
0.0
 40
0.0
 40
0.0
 40
0.0
 40
0.1497838616746357
 40
0.3039198677007078
 40
0.4537011775423317
 40
0.6078081864720632
 40
0.757933700022959
 40
0.9123691506710973
 40
1.0
 40
1.0
 40
1.0
 40
1.0
 10
1415.289817583123
 20
848.8210881421035
 30
0.0
 10
1415.289817583123
 20
848.0959736292626
 30
0.0
 10
1415.289817583123
 20
846.6246755578509
 30
0.0
 10
1415.289817583123
 20
844.7302367611011
 30
0.0
 10
1415.289817583123
 20
843.1137576321565
 30
0.0
 10
1415.289817583123
 20
841.8636859754611
 30
0.0
 10
1415.289817583123
 20
840.9957883651783
 30
0.0
 10
1415.289817583123
 20
840.5876669513679
 30
0.0
 10
1415.289817583123
 20
840.5490583756589
 30
0.0
 10
1415.289817583123
 20
840.5350816168905
 30
0.0
  0
SPLINE
  5
264
330
1F
100
AcDbEntity
  8
0
  6
Continuous
 62
     7
370
    35
100
AcDbSpline
210
0.0
220
0.0
230
1.0
 70
    24
 71
     3
 72
    18
 73
    14
 74
     0
 42
0.000000001
 43
0.00000001
 40
0.0
 40
0.0
 40
0.0
 40
0.0
 40
0.052885866710267
 40
0.1296739535442257
 40
0.2088264841309982
 40
0.2780198271462796
 40
0.348811653058509
 40
0.4119722453844439
 40
0.4765946606107994
 40
0.5395794985729668
 40
0.6046207084833857
 40
0.85956289811787
 40
1.0
 40
1.0
 40
1.0
 40
1.0
 10
1415.289817583123
 20
840.5350816168905
 30
0.0
 10
1414.402722874406
 20
840.5350816168905
 30
0.0
 10
1412.227603410491
 20
840.5350816168905
 30
0.0
 10
1408.864007732082
 20
840.5350816168905
 30
0.0
 10
1405.502040139052
 20
840.5350816168905
 30
0.0
 10
1402.562937907471
 20
840.5350816168905
 30
0.0
 10
1400.186592267295
 20
840.5350816168905
 30
0.0
 10
1398.251698335626
 20
840.5350816168905
 30
0.0
 10
1396.825638889189
 20
840.5350816168905
 30
0.0
 10
1395.860287263321
 20
840.5350816168905
 30
0.0
 10
1395.383687439441
 20
840.5350816168907
 30
0.0
 10
1395.374538161893
 20
840.5350816168897
 30
0.0
 10
1395.380581408411
 20
840.5350816168898
 30
0.0
 10
1395.382727944775
 20
840.5350816168898
 30
0.0
  0
SPLINE
  5
265
330
1F
100
AcDbEntity
  8
0
  6
Continuous
 62
     7
370
    35
100
AcDbSpline
210
0.0
220
0.0
230
1.0
 70
     8
 71
     3
 72
     9
 73
     5
 74
     0
 42
0.000000001
 43
0.00000001
 40
0.0
 40
0.0
 40
0.0
 40
0.0
 40
0.4409399557597904
 40
1.0
 40
1.0
 40
1.0
 40
1.0
 10
1387.328101928426
 20
842.8774246909222
 30
0.0
 10
1387.255635104148
 20
842.9227499166539
 30
0.0
 10
1387.091288863051
 20
843.0255422019516
 30
0.0
 10
1386.907066658382
 20
843.152552335757
 30
0.0
 10
1386.804075384489
 20
843.2235586267813
 30
0.0
  0
LINE
  5
266
330
1F
100
AcDbEntity
  8
0
  6
Continuous
 62
     7
370
    35
100
AcDbLine
 10
1442.3652302099
 20
842.4321931586
 30
0.0
 11
1442.8806678502
 21
842.6507112
 31
0.0
  0
SPLINE
  5
267
330
1F
100
AcDbEntity
  8
0
  6
Continuous
 62
     7
370
    35
100
AcDbSpline
210
0.0
220
0.0
230
1.0
 70
     8
 71
     3
 72
    10
 73
     6
 74
     0
 42
0.000000001
 43
0.00000001
 40
0.0
 40
0.0
 40
0.0
 40
0.0
 40
0.3651912706392277
 40
0.9388408861839794
 40
1.0
 40
1.0
 40
1.0
 40
1.0
 10
1443.260724448036
 20
842.8832686315078
 30
0.0
 10
1443.330228775289
 20
842.9271547031116
 30
0.0
 10
1443.508911863956
 20
843.0399778773441
 30
0.0
 10
1443.724301214171
 20
843.182551951087
 30
0.0
 10
1443.85813169903
 20
843.280962585155
 30
0.0
 10
1443.871025273861
 20
843.2904437200091
 30
0.0
  0
SPLINE
  5
268
330
1F
100
AcDbEntity
  8
0
  6
Continuous
 62
     7
370
    35
100
AcDbSpline
210
0.0
220
0.0
230
1.0
 70
    24
 71
     3
 72
    18
 73
    14
 74
     0
 42
0.000000001
 43
0.00000001
 40
0.0
 40
0.0
 40
0.0
 40
0.0
 40
0.0528900501225395
 40
0.1308503043354541
 40
0.2088349706568582
 40
0.2788361590001451
 40
0.3488290097785876
 40
0.4127449371310078
 40
0.4766197031471469
 40
0.5405641088728209
 40
0.6045882679846359
 40
0.8596063559737036
 40
0.9999999999999999
 40
0.9999999999999999
 40
0.9999999999999999
 40
0.9999999999999999
 10
1415.289817583123
 20
840.5350816168905
 30
0.0
 10
1416.176971529063
 20
840.5350816168905
 30
0.0
 10
1418.37179576443
 20
840.5350816168905
 30
0.0
 10
1421.732508297676
 20
840.5350816168905
 30
0.0
 10
1425.10600796513
 20
840.5350816168905
 30
0.0
 10
1428.025711688779
 20
840.5350816168905
 30
0.0
 10
1430.410918778928
 20
840.5350816168905
 30
0.0
 10
1432.330949842556
 20
840.5350816168905
 30
0.0
 10
1433.773748192023
 20
840.5350816168905
 30
0.0
 10
1434.690653739445
 20
840.5350816168905
 30
0.0
 10
1435.232827752978
 20
840.5350816168905
 30
0.0
 10
1435.203096835659
 20
840.5350816168902
 30
0.0
 10
1435.199618573911
 20
840.5350816168901
 30
0.0
 10
1435.198383593251
 20
840.5350816168901
 30
0.0
  0
SPLINE
  5
269
330
1F
100
AcDbEntity
  8
0
  6
Continuous
 62
     7
370
    35
100
AcDbSpline
210
0.0
220
0.0
230
1.0
 70
     8
 71
     3
 72
    14
 73
    10
 74
     0
 42
0.000000001
 43
0.00000001
 40
0.0
 40
0.0
 40
0.0
 40
0.0
 40
0.12969690086605
 40
0.2603671951156624
 40
0.3853421446376495
 40
0.5111847557259611
 40
0.6397642884787726
 40
0.7692911603858882
 40
1.0
 40
1.0
 40
1.0
 40
1.0
 10
1450.609932472569
 20
850.47535383665
 30
0.0
 10
1451.22424919523
 20
852.0094048205978
 30
0.0
 10
1452.45749317349
 20
855.0890200557175
 30
0.0
 10
1453.776367181164
 20
859.8248834470859
 30
0.0
 10
1454.708142472259
 20
864.5962225185106
 30
0.0
 10
1455.232796670017
 20
869.4053692059683
 30
0.0
 10
1455.344107648169
 20
874.296749460867
 30
0.0
 10
1454.999438069626
 20
880.5257758728842
 30
0.0
 10
1454.019982607058
 20
885.0167323533137
 30
0.0
 10
1453.392701563021
 20
887.892914045523
 30
0.0
  0
SPLINE
  5
26A
330
1F
100
AcDbEntity
  8
0
  6
Continuous
 62
     7
370
    35
100
AcDbSpline
210
0.0
220
0.0
230
1.0
 70
     8
 71
     3
 72
    14
 73
    10
 74
     0
 42
0.000000001
 43
0.00000001
 40
0.0
 40
0.0
 40
0.0
 40
0.0
 40
0.12969690086605
 40
0.2603671951156623
 40
0.3853421446376495
 40
0.5111847557259608
 40
0.6397642884787725
 40
0.7692911603858877
 40
1.0
 40
1.0
 40
1.0
 40
1.0
 10
1379.969702693676
 20
850.4753538366492
 30
0.0
 10
1379.355385971015
 20
852.009404820597
 30
0.0
 10
1378.122141992754
 20
855.0890200557168
 30
0.0
 10
1376.803267985081
 20
859.8248834470853
 30
0.0
 10
1375.871492693986
 20
864.59622251851
 30
0.0
 10
1375.346838496227
 20
869.4053692059676
 30
0.0
 10
1375.235527518076
 20
874.2967494608664
 30
0.0
 10
1375.580197096618
 20
880.5257758728835
 30
0.0
 10
1376.559652559186
 20
885.016732353313
 30
0.0
 10
1377.186933603224
 20
887.8929140455225
 30
0.0
  0
SPLINE
  5
26B
330
1F
100
AcDbEntity
  8
0
  6
Continuous
 62
     7
370
    35
100
AcDbSpline
210
0.0
220
0.0
230
1.0
 70
     8
 71
     3
 72
    10
 73
     6
 74
     0
 42
0.000000001
 43
0.00000001
 40
0.0
 40
0.0
 40
0.0
 40
0.0
 40
0.3422812336044294
 40
0.6664353245307868
 40
1.0
 40
1.0
 40
1.0
 40
1.0
 10
1443.871025273861
 20
843.2904437200091
 30
0.0
 10
1444.635925897917
 20
843.6933576979861
 30
0.0
 10
1446.125218168657
 20
844.4778474137779
 30
0.0
 10
1447.986185128197
 20
846.2565273385975
 30
0.0
 10
1448.963033033298
 20
847.6155082122708
 30
0.0
 10
1449.458445314497
 20
848.3047207408715
 30
0.0
  0
SPLINE
  5
26C
330
1F
100
AcDbEntity
  8
0
  6
Continuous
 62
     7
370
    35
100
AcDbSpline
210
0.0
220
0.0
230
1.0
 70
     8
 71
     3
 72
    10
 73
     6
 74
     0
 42
0.000000001
 43
0.00000001
 40
0.0
 40
0.0
 40
0.0
 40
0.0
 40
0.3422812336045613
 40
0.6664353245308543
 40
1.0
 40
1.0
 40
1.0
 40
1.0
 10
1386.708609892385
 20
843.2904437200079
 30
0.0
 10
1385.943709268329
 20
843.6933576979852
 30
0.0
 10
1384.454416997588
 20
844.4778474137768
 30
0.0
 10
1382.593450038048
 20
846.2565273385968
 30
0.0
 10
1381.616602132947
 20
847.6155082122702
 30
0.0
 10
1381.121189851747
 20
848.3047207408708
 30
0.0
  0
SPLINE
  5
26D
330
1F
100
AcDbEntity
  8
0
  6
Continuous
 62
     7
370
    35
100
AcDbSpline
210
0.0
220
0.0
230
1.0
 70
     8
 71
     3
 72
     9
 73
     5
 74
     0
 42
0.000000001
 43
0.00000001
 40
0.0
 40
0.0
 40
0.0
 40
0.0
 40
0.853636342424055
 40
1.0
 40
1.0
 40
1.0
 40
1.0
 10
1453.392701563021
 20
887.892914045523
 30
0.0
 10
1452.520712639467
 20
891.0039949278229
 30
0.0
 10
1451.499213342613
 20
894.6484987143712
 30
0.0
 10
1450.275097886192
 20
898.2286142725765
 30
0.0
 10
1450.095931870695
 20
898.7526130802199
 30
0.0
  0
SPLINE
  5
26E
330
1F
100
AcDbEntity
  8
0
  6
Continuous
 62
     7
370
    35
100
AcDbSpline
210
0.0
220
0.0
230
1.0
 70
     8
 71
     3
 72
     9
 73
     5
 74
     0
 42
0.000000001
 43
0.00000001
 40
0.0
 40
0.0
 40
0.0
 40
0.0
 40
0.8536363424240562
 40
1.0
 40
1.0
 40
1.0
 40
1.0
 10
1377.186933603224
 20
887.8929140455225
 30
0.0
 10
1378.058922526778
 20
891.0039949278222
 30
0.0
 10
1379.080421823632
 20
894.6484987143705
 30
0.0
 10
1380.304537280053
 20
898.2286142725758
 30
0.0
 10
1380.48370329555
 20
898.7526130802194
 30
0.0
  0
SPLINE
  5
26F
330
1F
100
AcDbEntity
  8
0
  6
Continuous
 62
     7
370
    35
100
AcDbSpline
210
0.0
220
0.0
230
1.0
 70
     8
 71
     3
 72
     9
 73
     5
 74
     0
 42
0.000000001
 43
0.00000001
 40
0.0
 40
0.0
 40
0.0
 40
0.0
 40
0.6310361367051674
 40
1.0
 40
1.0
 40
1.0
 40
1.0
 10
1450.095931870695
 20
898.7526130802199
 30
0.0
 10
1449.688150274123
 20
899.689094458304
 30
0.0
 10
1449.041940694586
 20
901.1731320967403
 30
0.0
 10
1447.939075720678
 20
902.3173040536994
 30
0.0
 10
1447.532158399212
 20
902.7394621592126
 30
0.0
  0
SPLINE
  5
270
330
1F
100
AcDbEntity
  8
0
  6
Continuous
 62
     7
370
    35
100
AcDbSpline
210
0.0
220
0.0
230
1.0
 70
     8
 71
     3
 72
     9
 73
     5
 74
     0
 42
0.000000001
 43
0.00000001
 40
0.0
 40
0.0
 40
0.0
 40
0.0
 40
0.6310361367051666
 40
1.0
 40
1.0
 40
1.0
 40
1.0
 10
1380.48370329555
 20
898.7526130802194
 30
0.0
 10
1380.891484892122
 20
899.6890944583033
 30
0.0
 10
1381.537694471659
 20
901.1731320967397
 30
0.0
 10
1382.640559445567
 20
902.3173040536988
 30
0.0
 10
1383.047476767033
 20
902.7394621592119
 30
0.0
  0
LINE
  5
271
330
1F
100
AcDbEntity
  8
0
  6
Continuous
 62
     7
370
    35
100
AcDbLine
 10
1449.4584453145
 20
848.3047207409
 30
0.0
 11
1450.6099324726
 21
850.4753538367
 31
0.0
  0
LINE
  5
272
330
1F
100
AcDbEntity
  8
0
  6
Continuous
 62
     7
370
    35
100
AcDbLine
 10
1381.1211898517
 20
848.3047207409
 30
0.0
 11
1379.9697026937
 21
850.4753538366
 31
0.0
  0
LINE
  5
273
330
1F
100
AcDbEntity
  8
0
  6
Continuous
 62
     7
370
    35
100
AcDbLine
 10
1443.151910232
 20
842.7941701737
 30
0.0
 11
1442.6589428893
 21
842.5756521323
 31
0.0
  0
LINE
  5
274
330
1F
100
AcDbEntity
  8
0
  6
Continuous
 62
     7
370
    35
100
AcDbLine
 10
1387.4277249342
 20
842.7941701737
 30
0.0
 11
1387.920692277
 21
842.5756521323
 31
0.0
  0
LINE
  5
275
330
1F
100
AcDbEntity
  8
0
  6
Continuous
 62
     7
370
    35
100
AcDbLine
 10
1447.5321583992
 20
902.7394621592
 30
0.0
 11
1447.6772275692
 21
902.598752682
 31
0.0
  0
LINE
  5
276
330
1F
100
AcDbEntity
  8
0
  6
Continuous
 62
     7
370
    35
100
AcDbLine
 10
1383.047476767
 20
902.7394621592
 30
0.0
 11
1382.902407597
 21
902.598752682
 31
0.0
  0
SPLINE
  5
277
330
1F
100
AcDbEntity
  8
0
  6
Continuous
 62
     7
370
    35
100
AcDbSpline
210
0.0
220
0.0
230
1.0
 70
     8
 71
     3
 72
    21
 73
    17
 74
     0
 42
0.000000001
 43
0.00000001
 40
0.0
 40
0.0
 40
0.0
 40
0.0
 40
0.0385875042304993
 40
0.1137555859597278
 40
0.1905584151145892
 40
0.2679261122717555
 40
0.3425758673548895
 40
0.4177439138170683
 40
0.4945465859978737
 40
0.5719140750339105
 40
0.6465659329143799
 40
0.7217360672759255
 40
0.7985407486308715
 40
0.8759102056376781
 40
0.9905374157361692
 40
1.0
 40
1.0
 40
1.0
 40
1.0
 10
1452.567711648677
 20
890.6650552176715
 30
0.0
 10
1452.734804296758
 20
890.5842937735117
 30
0.0
 10
1453.22739179292
 20
890.3462098241466
 30
0.0
 10
1454.006394894619
 20
889.8600817209743
 30
0.0
 10
1454.900148920472
 20
889.2131524966821
 30
0.0
 10
1455.731108256748
 20
888.4897585080411
 30
0.0
 10
1456.493240144094
 20
887.7057398892599
 30
0.0
 10
1457.185762765035
 20
886.8629406843828
 30
0.0
 10
1457.812340112268
 20
885.9540669939307
 30
0.0
 10
1458.357737367846
 20
884.997093349368
 30
0.0
 10
1458.81722998959
 20
884.0048032580966
 30
0.0
 10
1459.191797003067
 20
882.9803272490967
 30
0.0
 10
1459.482298137278
 20
881.9151854611107
 30
0.0
 10
1459.714462248769
 20
880.6426063216722
 30
0.0
 10
1459.787624864164
 20
879.6734441695479
 30
0.0
 10
1459.789662222445
 20
879.0768710180092
 30
0.0
 10
1459.789817583122
 20
879.0313787698756
 30
0.0
  0
SPLINE
  5
278
330
1F
100
AcDbEntity
  8
0
  6
Continuous
 62
     7
370
    35
100
AcDbSpline
210
0.0
220
0.0
230
1.0
 70
    24
 71
     3
 72
    20
 73
    16
 74
     0
 42
0.000000001
 43
0.00000001
 40
0.0
 40
0.0
 40
0.0
 40
0.0
 40
0.0031848875244884
 40
0.0996872166702686
 40
0.196192856158609
 40
0.2929138960264299
 40
0.3894614585497551
 40
0.453145940689729
 40
0.5167654851003727
 40
0.6214864979190169
 40
0.7268808125404138
 40
0.8182687157727474
 40
0.893962014427049
 40
0.969830422139591
 40
1.0
 40
1.0
 40
1.0
 40
1.0
 10
1459.789817583122
 20
879.0313787698757
 30
0.0
 10
1459.789817583122
 20
879.0317814167522
 30
0.0
 10
1459.789817583122
 20
879.0443842939685
 30
0.0
 10
1459.789817583122
 20
878.8836466837284
 30
0.0
 10
1459.789817583122
 20
878.148122502871
 30
0.0
 10
1459.789817583122
 20
876.9384783807823
 30
0.0
 10
1459.789817583122
 20
875.4454723529835
 30
0.0
 10
1459.789817583122
 20
873.8176085426496
 30
0.0
 10
1459.789817583122
 20
871.8753556679645
 30
0.0
 10
1459.789817583121
 20
869.2078863656131
 30
0.0
 10
1459.789817583122
 20
865.9832877533966
 30
0.0
 10
1459.789817583122
 20
863.2624568370114
 30
0.0
 10
1459.789817583122
 20
861.111658198849
 30
0.0
 10
1459.789817583122
 20
859.6691386790898
 30
0.0
 10
1459.789817583122
 20
858.8998456082434
 30
0.0
 10
1459.789817583122
 20
858.680968881446
 30
0.0
  0
SPLINE
  5
279
330
1F
100
AcDbEntity
  8
0
  6
Continuous
 62
     7
370
    35
100
AcDbSpline
210
0.0
220
0.0
230
1.0
 70
    24
 71
     3
 72
    10
 73
     6
 74
     0
 42
0.000000001
 43
0.00000001
 40
0.0
 40
0.0
 40
0.0
 40
0.0
 40
0.2479681796226271
 40
0.4972688069878457
 40
1.0
 40
1.0
 40
1.0
 40
1.0
 10
1459.789817583122
 20
858.680968881446
 30
0.0
 10
1459.789817583122
 20
858.3744743114838
 30
0.0
 10
1459.789817583122
 20
857.7598382344461
 30
0.0
 10
1459.789817583122
 20
856.6537680163428
 30
0.0
 10
1459.789817583122
 20
855.8963169480633
 30
0.0
 10
1459.789817583122
 20
855.3899630028092
 30
0.0
  0
LINE
  5
27A
330
1F
100
AcDbEntity
  8
0
  6
Continuous
 62
     7
370
    35
100
AcDbLine
 10
1459.7898175831
 20
855.3899630028
 30
0.0
 11
1459.7898175831
 21
853.5350816169
 31
0.0
  0
LINE
  5
27B
330
1F
100
AcDbEntity
  8
0
  6
Continuous
 62
     7
370
    35
100
AcDbLine
 10
1365.7898175831
 20
922.9846816169
 30
0.0
 11
1365.7898175831
 21
932.9846816169
 31
0.0
  0
ARC
  5
27C
330
1F
100
AcDbEntity
  8
0
  6
Continuous
 62
     7
370
    35
100
AcDbCircle
 10
1428.2648175831
 20
870.0846816169
 30
0.0
 40
2.000000000000227
100
AcDbArc
 50
270.0
 51
0.0
  0
ARC
  5
27D
330
1F
100
AcDbEntity
  8
0
  6
Continuous
 62
     7
370
    35
100
AcDbCircle
 10
1402.2648175831
 20
870.0846816169
 30
0.0
 40
2.000000000000227
100
AcDbArc
 50
180.0
 51
270.0
  0
LINE
  5
27E
330
1F
100
AcDbEntity
  8
0
  6
Continuous
 62
     7
370
    35
100
AcDbLine
 10
1400.2648175831
 20
870.0846816169
 30
0.0
 11
1400.2648175831
 21
904.3752917058
 31
0.0
  0
ARC
  5
27F
330
1F
100
AcDbEntity
  8
0
  6
Continuous
 62
     7
370
    35
100
AcDbCircle
 10
1398.2648175831
 20
904.3752917058
 30
0.0
 40
2.000000000000123
100
AcDbArc
 50
360.0
 51
65.0
  0
ARC
  5
280
330
1F
100
AcDbEntity
  8
0
  6
Continuous
 62
     7
370
    35
100
AcDbCircle
 10
1384.3898175831
 20
915.2588221385
 30
0.0
 40
2.0
100
AcDbArc
 50
180.0
 51
245.0
  0
LINE
  5
281
330
1F
100
AcDbEntity
  8
0
  6
Continuous
 62
     7
370
    35
100
AcDbLine
 10
1382.3898175831
 20
915.2588221385
 30
0.0
 11
1382.3898175831
 21
920.9846816169
 31
0.0
  0
LINE
  5
282
330
1F
100
AcDbEntity
  8
0
  6
Continuous
 62
     7
370
    35
100
AcDbLine
 10
1446.9850541066
 20
913.4462065644
 30
0.0
 11
1431.4195810596
 21
906.1879072798
 31
0.0
  0
LINE
  5
283
330
1F
100
AcDbEntity
  8
0
  6
Continuous
 62
     7
370
    35
100
AcDbLine
 10
1430.2648175831
 20
904.3752917058
 30
0.0
 11
1430.2648175831
 21
870.0846816169
 31
0.0
  0
LINE
  5
284
330
1F
100
AcDbEntity
  8
0
  6
Continuous
 62
     7
370
    35
100
AcDbLine
 10
1428.2648175831
 20
868.0846816169
 30
0.0
 11
1402.2648175831
 21
868.0846816169
 31
0.0
  0
LINE
  5
285
330
1F
100
AcDbEntity
  8
0
  6
Continuous
 62
     7
370
    35
100
AcDbLine
 10
1399.1100541066
 20
906.1879072798
 30
0.0
 11
1383.5445810596
 21
913.4462065644
 31
0.0
  0
LINE
  5
286
330
1F
100
AcDbEntity
  8
0
  6
Continuous
 62
     7
370
    35
100
AcDbLine
 10
1416.2648175831
 20
888.0846816169
 30
0.0
 11
1416.2648175831
 21
898.0846816169
 31
0.0
  0
ARC
  5
287
330
1F
100
AcDbEntity
  8
0
  6
Continuous
 62
     7
370
    35
100
AcDbCircle
 10
1422.7648175831
 20
898.0846816169
 30
0.0
 40
6.500000000000227
100
AcDbArc
 50
0.0
 51
180.0
  0
LINE
  5
288
330
1F
100
AcDbEntity
  8
0
  6
Continuous
 62
     7
370
    35
100
AcDbLine
 10
1414.2648175831
 20
898.0846816169
 30
0.0
 11
1414.2648175831
 21
888.0846816169
 31
0.0
  0
ARC
  5
289
330
1F
100
AcDbEntity
  8
0
  6
Continuous
 62
     7
370
    35
100
AcDbCircle
 10
1407.7648175831
 20
888.0846816169
 30
0.0
 40
6.500000000000227
100
AcDbArc
 50
180.0
 51
0.0
  0
CIRCLE
  5
28A
330
1F
100
AcDbEntity
  8
0
  6
Continuous
 62
     7
370
    35
100
AcDbCircle
 10
1415.2648175831
 20
876.0846816169
 30
0.0
 40
4.250000000000227
  0
LINE
  5
28B
330
1F
100
AcDbEntity
  8
0
  6
Continuous
 62
     7
370
    35
100
AcDbLine
 10
1429.2648175831
 20
898.0846816169
 30
0.0
 11
1429.2648175831
 21
888.0846816169
 31
0.0
  0
ARC
  5
28C
330
1F
100
AcDbEntity
  8
0
  6
Continuous
 62
     7
370
    35
100
AcDbCircle
 10
1422.7648175831
 20
888.0846816169
 30
0.0
 40
6.500000000000227
100
AcDbArc
 50
180.0
 51
0.0
  0
ARC
  5
28D
330
1F
100
AcDbEntity
  8
0
  6
Continuous
 62
     7
370
    35
100
AcDbCircle
 10
1432.2648175831
 20
904.3752917058
 30
0.0
 40
2.0
100
AcDbArc
 50
115.0
 51
180.0
  0
LINE
  5
28E
330
1F
100
AcDbEntity
  8
0
  6
Continuous
 62
     7
370
    35
100
AcDbLine
 10
1401.2648175831
 20
888.0846816169
 30
0.0
 11
1401.2648175831
 21
898.0846816169
 31
0.0
  0
ARC
  5
28F
330
1F
100
AcDbEntity
  8
0
  6
Continuous
 62
     7
370
    35
100
AcDbCircle
 10
1407.7648175831
 20
898.0846816169
 30
0.0
 40
6.500000000000227
100
AcDbArc
 50
360.0
 51
180.0
  0
LINE
  5
290
330
1F
100
AcDbEntity
  8
0
  6
Continuous
 62
     7
370
    35
100
AcDbLine
 10
1450.2898175831
 20
932.9846816169
 30
0.0
 11
1450.2898175831
 21
921.9846816169
 31
0.0
  0
LINE
  5
291
330
1F
100
AcDbEntity
  8
0
  6
Continuous
 62
     7
370
    35
100
AcDbLine
 10
1448.1398175831
 20
920.9846816169
 30
0.0
 11
1448.1398175831
 21
915.2588221385
 31
0.0
  0
ARC
  5
292
330
1F
100
AcDbEntity
  8
0
  6
Continuous
 62
     7
370
    35
100
AcDbCircle
 10
1446.1398175831
 20
915.2588221385
 30
0.0
 40
2.000000000000226
100
AcDbArc
 50
295.0
 51
0.0
  0
ARC
  5
293
330
1F
100
AcDbEntity
  8
0
  6
Continuous
 62
     7
370
    35
100
AcDbCircle
 10
1366.7898175831
 20
922.9846816169
 30
0.0
 40
1.0
100
AcDbArc
 50
180.0
 51
270.0
  0
LINE
  5
294
330
1F
100
AcDbEntity
  8
0
  6
Continuous
 62
     7
370
    35
100
AcDbLine
 10
1450.2898175831
 20
933.9846816169
 30
0.0
 11
1365.7898175831
 21
933.9846816169
 31
0.0
  0
LINE
  5
295
330
1F
100
AcDbEntity
  8
0
  6
Continuous
 62
     7
370
    35
100
AcDbLine
 10
1365.7898175831
 20
932.9846816169
 30
0.0
 11
1365.7898175831
 21
933.9846816169
 31
0.0
  0
LINE
  5
296
330
1F
100
AcDbEntity
  8
0
  6
Continuous
 62
     7
370
    35
100
AcDbLine
 10
1450.2898175831
 20
933.9846816169
 30
0.0
 11
1450.2898175831
 21
932.9846816169
 31
0.0
  0
LINE
  5
297
330
1F
100
AcDbEntity
  8
0
  6
Continuous
 62
     7
370
    35
100
AcDbLine
 10
1364.7648175831
 20
954.4846816169
 30
0.0
 11
1364.7648175831
 21
922.9846816169
 31
0.0
  0
LINE
  5
298
330
1F
100
AcDbEntity
  8
0
  6
Continuous
 62
     7
370
    35
100
AcDbLine
 10
1365.7648175831
 20
954.4846816169
 30
0.0
 11
1365.7648175831
 21
922.9846816169
 31
0.0
  0
ARC
  5
299
330
1F
100
AcDbEntity
  8
0
  6
Continuous
 62
     7
370
    35
100
AcDbCircle
 10
1366.7648175831
 20
922.9846816169
 30
0.0
 40
1.0
100
AcDbArc
 50
180.0
 51
270.0
  0
ARC
  5
29A
330
1F
100
AcDbEntity
  8
0
  6
Continuous
 62
     7
370
    35
100
AcDbCircle
 10
1366.7648175831
 20
922.9846816169
 30
0.0
 40
2.0
100
AcDbArc
 50
180.0
 51
270.0
  0
LINE
  5
29B
330
1F
100
AcDbEntity
  8
0
  6
Continuous
 62
     7
370
    35
100
AcDbLine
 10
1480.7648175831
 20
921.9846816169
 30
0.0
 11
1480.7648175831
 21
920.9846816169
 31
0.0
  0
LINE
  5
29C
330
1F
100
AcDbEntity
  8
0
  6
Continuous
 62
     7
370
    35
100
AcDbLine
 10
1480.7648175831
 20
920.9846816169
 30
0.0
 11
1470.7648175831
 21
920.9846816169
 31
0.0
  0
LINE
  5
29D
330
1F
100
AcDbEntity
  8
0
  6
Continuous
 62
     7
370
    35
100
AcDbLine
 10
1470.7648175831
 20
921.9846816169
 30
0.0
 11
1480.7648175831
 21
921.9846816169
 31
0.0
  0
LINE
  5
29E
330
1F
100
AcDbEntity
  8
0
  6
Continuous
 62
     7
370
    35
100
AcDbLine
 10
1470.7648175831
 20
920.9846816169
 30
0.0
 11
1366.7648175831
 21
920.9846816169
 31
0.0
  0
LINE
  5
29F
330
1F
100
AcDbEntity
  8
0
  6
Continuous
 62
     7
370
    35
100
AcDbLine
 10
1470.7648175831
 20
921.9846816169
 30
0.0
 11
1366.7648175831
 21
921.9846816169
 31
0.0
  0
LINE
  5
2A0
330
1F
100
AcDbEntity
  8
0
  6
Continuous
 62
     7
370
    35
100
AcDbLine
 10
1364.7648175831
 20
964.4846816169
 30
0.0
 11
1365.7648175831
 21
964.4846816169
 31
0.0
  0
LINE
  5
2A1
330
1F
100
AcDbEntity
  8
0
  6
Continuous
 62
     7
370
    35
100
AcDbLine
 10
1364.7648175831
 20
954.4846816169
 30
0.0
 11
1364.7648175831
 21
964.4846816169
 31
0.0
  0
LINE
  5
2A2
330
1F
100
AcDbEntity
  8
0
  6
Continuous
 62
     7
370
    35
100
AcDbLine
 10
1365.7648175831
 20
964.4846816169
 30
0.0
 11
1365.7648175831
 21
954.4846816169
 31
0.0
  0
LINE
  5
2A3
330
1F
100
AcDbEntity
  8
0
  6
Continuous
 62
     8
370
    18
100
AcDbLine
 10
1448.2898175831
 20
919.6466001062
 30
0.0
 11
1448.1398175831
 21
919.6466001062
 31
0.0
  0
LINE
  5
2A4
330
1F
100
AcDbEntity
  8
0
  6
Continuous
 62
     8
370
    18
100
AcDbLine
 10
1365.7648175831
 20
934.9846816169
 30
0.0
 11
1365.7898175831
 21
934.9846816169
 31
0.0
  0
LINE
  5
2A5
330
1F
100
AcDbEntity
  8
0
  6
Continuous
 62
     8
370
    18
100
AcDbLine
 10
1382.2898175831
 20
919.6466001062
 30
0.0
 11
1382.3898175831
 21
919.6466001062
 31
0.0
  0
SPLINE
  5
2A6
330
1F
100
AcDbEntity
  8
0
  6
Continuous
 62
     8
370
    18
100
AcDbSpline
210
0.0
220
0.0
230
1.0
 70
     8
 71
     3
 72
     9
 73
     5
 74
     0
 42
0.000000001
 43
0.00000001
 40
0.0
 40
0.0
 40
0.0
 40
0.0
 40
0.463972688770051
 40
1.0
 40
1.0
 40
1.0
 40
1.0
 10
1447.23420531028
 20
903.1349961048707
 30
0.0
 10
1447.204790090668
 20
903.1963657432967
 30
0.0
 10
1447.141391489148
 20
903.3286356805396
 30
0.0
 10
1447.127070456038
 20
903.3488967098922
 30
0.0
 10
1447.119393991166
 20
903.3597571749789
 30
0.0
  0
LINE
  5
2A7
330
1F
100
AcDbEntity
  8
0
  6
Continuous
 62
     8
370
    18
100
AcDbLine
 10
1447.1193939912
 20
903.359757175
 30
0.0
 11
1446.9628267449
 21
903.4826780951
 31
0.0
  0
SPLINE
  5
2A8
330
1F
100
AcDbEntity
  8
0
  6
Continuous
 62
     8
370
    18
100
AcDbSpline
210
0.0
220
0.0
230
1.0
 70
     8
 71
     3
 72
    11
 73
     7
 74
     0
 42
0.000000001
 43
0.00000001
 40
0.0
 40
0.0
 40
0.0
 40
0.0
 40
0.298604439555027
 40
0.5785107697798764
 40
0.9999675635114517
 40
1.0
 40
1.0
 40
1.0
 40
1.0
 10
1446.962826744914
 20
903.4826780951278
 30
0.0
 10
1446.96276016286
 20
903.4768420160268
 30
0.0
 10
1446.962631168008
 20
903.4655353033127
 30
0.0
 10
1447.042312376344
 20
903.2921013550947
 30
0.0
 10
1447.129386111558
 20
903.0863964502387
 30
0.0
 10
1447.1824407516
 20
902.941162398305
 30
0.0
 10
1447.182444834519
 20
902.9411512215481
 30
0.0
  0
SPLINE
  5
2A9
330
1F
100
AcDbEntity
  8
0
  6
Continuous
 62
     8
370
    18
100
AcDbSpline
210
0.0
220
0.0
230
1.0
 70
     8
 71
     3
 72
    10
 73
     6
 74
     0
 42
0.000000001
 43
0.00000001
 40
0.0
 40
0.0
 40
0.0
 40
0.0
 40
0.0305940752880727
 40
0.8849546452569853
 40
1.0
 40
1.0
 40
1.0
 40
1.0
 10
1448.853591326532
 20
898.3269937655507
 30
0.0
 10
1448.890683560016
 20
898.2185555233744
 30
0.0
 10
1449.963601895197
 20
895.081904873415
 30
0.0
 10
1451.024001644986
 20
891.484118409979
 30
0.0
 10
1451.921643017176
 20
887.965606739529
 30
0.0
 10
1452.028171631725
 20
887.5480433504722
 30
0.0
  0
LINE
  5
2AA
330
1F
100
AcDbEntity
  8
0
  6
Continuous
 62
     8
370
    18
100
AcDbLine
 10
1449.421268692
 20
850.984557226
 30
0.0
 11
1448.5039151698
 21
848.9813231806
 31
0.0
  0
SPLINE
  5
2AB
330
1F
100
AcDbEntity
  8
0
  6
Continuous
 62
     8
370
    18
100
AcDbSpline
210
0.0
220
0.0
230
1.0
 70
     8
 71
     3
 72
    18
 73
    14
 74
     0
 42
0.000000001
 43
0.00000001
 40
0.0
 40
0.0
 40
0.0
 40
0.0
 40
0.0497884573626227
 40
0.1520626953526167
 40
0.2542931679105508
 40
0.3525326664709017
 40
0.4508084200367281
 40
0.5543273934134146
 40
0.6578565275353687
 40
0.7740307271289464
 40
0.8901694733964515
 40
0.9999988953086805
 40
1.0
 40
1.0
 40
1.0
 40
1.0
 10
1448.503915169827
 20
848.9813231806086
 30
0.0
 10
1448.494720512237
 20
848.9969840768027
 30
0.0
 10
1448.466638412687
 20
849.0448152050009
 30
0.0
 10
1448.032845323323
 20
849.1300231740315
 30
0.0
 10
1446.516901754606
 20
849.1855941138855
 30
0.0
 10
1444.156930719119
 20
849.2499878159318
 30
0.0
 10
1441.067462390888
 20
849.2750774685476
 30
0.0
 10
1437.25293296464
 20
849.263926661717
 30
0.0
 10
1432.619454337249
 20
849.217029997871
 30
0.0
 10
1427.246688323477
 20
849.13814866109
 30
0.0
 10
1421.345329711587
 20
849.0128773409281
 30
0.0
 10
1417.273950038773
 20
848.8885177500111
 30
0.0
 10
1415.289837539613
 20
848.8210888203134
 30
0.0
 10
1415.289817583123
 20
848.8210881421035
 30
0.0
  0
SPLINE
  5
2AC
330
1F
100
AcDbEntity
  8
0
  6
Continuous
 62
     8
370
    18
100
AcDbSpline
210
0.0
220
0.0
230
1.0
 70
     8
 71
     3
 72
    10
 73
     6
 74
     0
 42
0.000000001
 43
0.00000001
 40
0.0
 40
0.0
 40
0.0
 40
0.0
 40
0.0305940752880733
 40
0.8849546452569867
 40
0.9999999999999999
 40
0.9999999999999999
 40
0.9999999999999999
 40
0.9999999999999999
 10
1381.726043839714
 20
898.32699376555
 30
0.0
 10
1381.68895160623
 20
898.2185555233739
 30
0.0
 10
1380.616033271048
 20
895.0819048734141
 30
0.0
 10
1379.555633521259
 20
891.4841184099784
 30
0.0
 10
1378.657992149069
 20
887.9656067395283
 30
0.0
 10
1378.551463534519
 20
887.5480433504716
 30
0.0
  0
SPLINE
  5
2AD
330
1F
100
AcDbEntity
  8
0
  6
Continuous
 62
     8
370
    18
100
AcDbSpline
210
0.0
220
0.0
230
1.0
 70
     8
 71
     3
 72
    11
 73
     7
 74
     0
 42
0.000000001
 43
0.00000001
 40
0.0
 40
0.0
 40
0.0
 40
0.0
 40
0.2986044395547212
 40
0.5785107697795332
 40
0.9999675635113833
 40
1.0
 40
1.0
 40
1.0
 40
1.0
 10
1383.616808421331
 20
903.4826780951284
 30
0.0
 10
1383.616875003384
 20
903.4768420160215
 30
0.0
 10
1383.617003998232
 20
903.4655353032958
 30
0.0
 10
1383.537322789925
 20
903.2921013551736
 30
0.0
 10
1383.450249054607
 20
903.0863964499781
 30
0.0
 10
1383.397194414645
 20
902.9411623983043
 30
0.0
 10
1383.397190331727
 20
902.9411512215474
 30
0.0
  0
LINE
  5
2AE
330
1F
100
AcDbEntity
  8
0
  6
Continuous
 62
     8
370
    18
100
AcDbLine
 10
1383.4602411751
 20
903.359757175
 30
0.0
 11
1383.6168084213
 21
903.4826780951
 31
0.0
  0
SPLINE
  5
2AF
330
1F
100
AcDbEntity
  8
0
  6
Continuous
 62
     8
370
    18
100
AcDbSpline
210
0.0
220
0.0
230
1.0
 70
     8
 71
     3
 72
    18
 73
    14
 74
     0
 42
0.000000001
 43
0.00000001
 40
0.0
 40
0.0
 40
0.0
 40
0.0
 40
0.0497848687598492
 40
0.1505175920502432
 40
0.2543243622726998
 40
0.3513587062571553
 40
0.450831788278737
 40
0.5531105266318745
 40
0.6578696705688372
 40
0.7722222945756156
 40
0.8901773896516061
 40
0.9999988953883033
 40
1.0
 40
1.0
 40
1.0
 40
1.0
 10
1382.075719996417
 20
848.9813231806079
 30
0.0
 10
1382.085699479049
 20
848.9975558901846
 30
0.0
 10
1382.115871049912
 20
849.0466332186738
 30
0.0
 10
1382.51348989012
 20
849.1082316705504
 30
0.0
 10
1384.052093162191
 20
849.1903517467882
 30
0.0
 10
1386.40625099494
 20
849.24861170196
 30
0.0
 10
1389.486481823097
 20
849.2754416676571
 30
0.0
 10
1393.307208096528
 20
849.2635869636105
 30
0.0
 10
1397.9159272054
 20
849.217979170364
 30
0.0
 10
1403.299025849593
 20
849.1374667229932
 30
0.0
 10
1409.202222513353
 20
849.0141984924144
 30
0.0
 10
1413.305685126141
 20
848.888517751362
 30
0.0
 10
1415.289797626632
 20
848.8210888203134
 30
0.0
 10
1415.289817583123
 20
848.8210881421035
 30
0.0
  0
LINE
  5
2B0
330
1F
100
AcDbEntity
  8
0
  6
Continuous
 62
     8
370
    18
100
AcDbLine
 10
1381.1583664742
 20
850.984557226
 30
0.0
 11
1382.0757199964
 21
848.9813231806
 31
0.0
  0
SPLINE
  5
2B1
330
1F
100
AcDbEntity
  8
0
  6
Continuous
 62
     8
370
    18
100
AcDbSpline
210
0.0
220
0.0
230
1.0
 70
     8
 71
     3
 72
    14
 73
    10
 74
     0
 42
0.000000001
 43
0.00000001
 40
0.0
 40
0.0
 40
0.0
 40
0.0
 40
0.2135072054014857
 40
0.6517504153256238
 40
0.8731400298126321
 40
0.9340362681778048
 40
0.9607431005770696
 40
0.9801118651181883
 40
1.0
 40
1.0
 40
1.0
 40
1.0
 10
1382.15284107914
 20
848.8242113210956
 30
0.0
 10
1382.479726211089
 20
848.2303424525659
 30
0.0
 10
1383.477573192933
 20
846.4175030170752
 30
0.0
 10
1385.37889940459
 20
844.3634790549934
 30
0.0
 10
1387.221035483862
 20
843.0320226623647
 30
0.0
 10
1387.966048100008
 20
842.5814520919041
 30
0.0
 10
1388.151192915928
 20
842.4725727830574
 30
0.0
 10
1388.217082337675
 20
842.4331268445918
 30
0.0
 10
1388.215305253727
 20
842.4325071202541
 30
0.0
 10
1388.214404956308
 20
842.4321931585962
 30
0.0
  0
LINE
  5
2B2
330
1F
100
AcDbEntity
  8
0
  6
Continuous
 62
     8
370
    18
100
AcDbLine
 10
1382.0757199964
 20
848.9813231806
 30
0.0
 11
1382.1528410791
 21
848.8242113211
 31
0.0
  0
SPLINE
  5
2B3
330
1F
100
AcDbEntity
  8
0
  6
Continuous
 62
     8
370
    18
100
AcDbSpline
210
0.0
220
0.0
230
1.0
 70
     8
 71
     3
 72
     9
 73
     5
 74
     0
 42
0.000000001
 43
0.00000001
 40
0.0
 40
0.0
 40
0.0
 40
0.0
 40
0.4374209949450819
 40
1.0
 40
1.0
 40
1.0
 40
1.0
 10
1387.698967316048
 20
842.6507112000477
 30
0.0
 10
1387.695762953796
 20
842.6523655604079
 30
0.0
 10
1387.688437374346
 20
842.6561476384961
 30
0.0
 10
1387.646486724826
 20
842.6809571720983
 30
0.0
 10
1387.622886170158
 20
842.6949144948281
 30
0.0
  0
LINE
  5
2B4
330
1F
100
AcDbEntity
  8
0
  6
Continuous
 62
     8
370
    18
100
AcDbLine
 10
1387.4612839465
 20
842.7927451132
 30
0.0
 11
1387.3281019284
 21
842.8774246909
 31
0.0
  0
LINE
  5
2B5
330
1F
100
AcDbEntity
  8
0
  6
Continuous
 62
     8
370
    18
100
AcDbLine
 10
1448.5039151698
 20
848.9813231806
 30
0.0
 11
1448.4267940871
 21
848.8242113211
 31
0.0
  0
SPLINE
  5
2B6
330
1F
100
AcDbEntity
  8
0
  6
Continuous
 62
     8
370
    18
100
AcDbSpline
210
0.0
220
0.0
230
1.0
 70
     8
 71
     3
 72
    14
 73
    10
 74
     0
 42
0.000000001
 43
0.00000001
 40
0.0
 40
0.0
 40
0.0
 40
0.0
 40
0.213507205401368
 40
0.6517504153255504
 40
0.8731400298126194
 40
0.9340362681777978
 40
0.960743100577066
 40
0.9801118651181863
 40
1.0
 40
1.0
 40
1.0
 40
1.0
 10
1448.426794087103
 20
848.8242113210938
 30
0.0
 10
1448.099908955155
 20
848.2303424525649
 30
0.0
 10
1447.102061973312
 20
846.4175030170763
 30
0.0
 10
1445.200735761654
 20
844.3634790549943
 30
0.0
 10
1443.358599682383
 20
843.0320226623647
 30
0.0
 10
1442.613587066237
 20
842.5814520919041
 30
0.0
 10
1442.428442250317
 20
842.4725727830574
 30
0.0
 10
1442.362552828569
 20
842.4331268445918
 30
0.0
 10
1442.364329912517
 20
842.4325071202541
 30
0.0
 10
1442.365230209937
 20
842.4321931585962
 30
0.0
  0
SPLINE
  5
2B7
330
1F
100
AcDbEntity
  8
0
  6
Continuous
 62
     8
370
    18
100
AcDbSpline
210
0.0
220
0.0
230
1.0
 70
     8
 71
     3
 72
     9
 73
     5
 74
     0
 42
0.000000001
 43
0.00000001
 40
0.0
 40
0.0
 40
0.0
 40
0.0
 40
0.5224329713429601
 40
1.0
 40
1.0
 40
1.0
 40
1.0
 10
1442.880667850198
 20
842.6507112000482
 30
0.0
 10
1442.883443022895
 20
842.6521049179247
 30
0.0
 10
1442.88875503965
 20
842.6547726627895
 30
0.0
 10
1442.923057823511
 20
842.6750462078562
 30
0.0
 10
1442.939439702073
 20
842.6847281845342
 30
0.0
  0
SPLINE
  5
2B8
330
1F
100
AcDbEntity
  8
0
  6
Continuous
 62
     8
370
    18
100
AcDbSpline
210
0.0
220
0.0
230
1.0
 70
     8
 71
     3
 72
     9
 73
     5
 74
     0
 42
0.000000001
 43
0.00000001
 40
0.0
 40
0.0
 40
0.0
 40
0.0
 40
0.3615544521722163
 40
0.9999999999999999
 40
0.9999999999999999
 40
0.9999999999999999
 40
0.9999999999999999
 10
1443.037752025376
 20
842.7435671711438
 30
0.0
 10
1443.059949285206
 20
842.7568664479919
 30
0.0
 10
1443.121343245913
 20
842.7936500549099
 30
0.0
 10
1443.206412415473
 20
842.8483473725698
 30
0.0
 10
1443.260724448036
 20
842.8832686315078
 30
0.0
  0
SPLINE
  5
2B9
330
1F
100
AcDbEntity
  8
0
  6
Continuous
 62
     8
370
    18
100
AcDbSpline
210
0.0
220
0.0
230
1.0
 70
     8
 71
     3
 72
    14
 73
    10
 74
     0
 42
0.000000001
 43
0.00000001
 40
0.0
 40
0.0
 40
0.0
 40
0.0
 40
0.1272473860604718
 40
0.2554745767697396
 40
0.3810919869018191
 40
0.5075916090131556
 40
0.7089607368256291
 40
0.9137762176246998
 40
1.0
 40
1.0
 40
1.0
 40
1.0
 10
1450.132937028979
 20
850.6764254633582
 30
0.0
 10
1450.730252883247
 20
852.1663348272889
 30
0.0
 10
1451.929483922809
 20
855.1576258546313
 30
0.0
 10
1453.215114807365
 20
859.7963884659233
 30
0.0
 10
1454.127194703503
 20
864.5079644594024
 30
0.0
 10
1454.736182369618
 20
870.1995947853904
 30
0.0
 10
1454.726734315216
 20
876.9316619126863
 30
0.0
 10
1453.9558513017
 20
883.1144648388859
 30
0.0
 10
1453.103000732874
 20
886.683741752108
 30
0.0
 10
1452.850333786693
 20
887.7411817430086
 30
0.0
  0
LWPOLYLINE
  5
2BA
330
1F
100
AcDbEntity
  8
0
  6
Continuous
 62
     8
370
    18
100
AcDbPolyline
 90
        9
 70
   128
 43
0.0
 10
1449.421268692
 20
850.984557226
 10
1449.4382040545
 20
850.9771905182
 10
1449.4767374484
 20
850.9604820617
 10
1449.536564654
 20
850.9345637694
 10
1449.6172133375
 20
850.8996402651
 10
1449.7180467804
 20
850.8559872688
 10
1449.8382689062
 20
850.8039494193
 10
1449.9769305654
 20
850.7439375536
 10
1450.132937029
 20
850.6764254634
  0
ARC
  5
2BB
330
1F
100
AcDbEntity
  8
0
  6
Continuous
 62
     8
370
    18
100
AcDbCircle
 10
1447.4947118531
 20
908.6928066019
 30
0.0
 40
21.62529238007006
100
AcDbArc
 50
282.1010759283
 51
284.3388181969
  0
LWPOLYLINE
  5
2BC
330
1F
100
AcDbEntity
  8
0
  6
Continuous
 62
     8
370
    18
100
AcDbPolyline
 90
        9
 70
   128
 43
0.0
 10
1381.1583664742
 20
850.984557226
 10
1381.1414311117
 20
850.9771905182
 10
1381.1028977178
 20
850.9604820617
 10
1381.0430705123
 20
850.9345637694
 10
1380.9624218287
 20
850.8996402651
 10
1380.8615883858
 20
850.8559872688
 10
1380.7413662601
 20
850.8039494193
 10
1380.6027046009
 20
850.7439375536
 10
1380.4466981373
 20
850.6764254634
  0
SPLINE
  5
2BD
330
1F
100
AcDbEntity
  8
0
  6
Continuous
 62
     8
370
    18
100
AcDbSpline
210
0.0
220
0.0
230
1.0
 70
     8
 71
     3
 72
    14
 73
    10
 74
     0
 42
0.000000001
 43
0.00000001
 40
0.0
 40
0.0
 40
0.0
 40
0.0
 40
0.1272473860604716
 40
0.2554745767697392
 40
0.3810919869018187
 40
0.5075916090131551
 40
0.7089607368256288
 40
0.9137762176246995
 40
1.0
 40
1.0
 40
1.0
 40
1.0
 10
1380.446698137266
 20
850.6764254633575
 30
0.0
 10
1379.849382282998
 20
852.1663348272881
 30
0.0
 10
1378.650151243435
 20
855.1576258546307
 30
0.0
 10
1377.36452035888
 20
859.7963884659226
 30
0.0
 10
1376.452440462742
 20
864.5079644594017
 30
0.0
 10
1375.843452796627
 20
870.19959478539
 30
0.0
 10
1375.852900851028
 20
876.9316619126856
 30
0.0
 10
1376.623783864545
 20
883.1144648388852
 30
0.0
 10
1377.47663443337
 20
886.6837417521073
 30
0.0
 10
1377.729301379552
 20
887.741181743008
 30
0.0
  0
ARC
  5
2BE
330
1F
100
AcDbEntity
  8
0
  6
Continuous
 62
     8
370
    18
100
AcDbCircle
 10
1383.0849233133
 20
908.6928066022
 30
0.0
 40
21.62529238040731
100
AcDbArc
 50
255.6611818031
 51
257.8989240716
  0
SPLINE
  5
2BF
330
1F
100
AcDbEntity
  8
0
  6
Continuous
 62
     8
370
    18
100
AcDbSpline
210
0.0
220
0.0
230
1.0
 70
     8
 71
     3
 72
    17
 73
    13
 74
     0
 42
0.000000001
 43
0.00000001
 40
0.0
 40
0.0
 40
0.0
 40
0.0
 40
0.0045109817899508
 40
0.0089278415503381
 40
0.0130797684277637
 40
0.0177777921768911
 40
0.0339670776357914
 40
0.084060007251609
 40
0.3047425979556686
 40
0.7692822253148978
 40
0.8273200843747881
 40
1.0
 40
1.0
 40
1.0
 40
1.0
 10
1442.658942889262
 20
842.5756521322943
 30
0.0
 10
1442.654623601323
 20
842.5738883434833
 30
0.0
 10
1442.646075147767
 20
842.570397567469
 30
0.0
 10
1442.647267606515
 20
842.5721121032655
 30
0.0
 10
1442.66211670281
 20
842.5804330091155
 30
0.0
 10
1442.709055314382
 20
842.6051030605519
 30
0.0
 10
1442.891399840257
 20
842.6983152523632
 30
0.0
 10
1443.659406896518
 20
843.1022591936901
 30
0.0
 10
1445.556322679666
 20
844.29337256294
 30
0.0
 10
1447.200297792991
 20
845.8904850895132
 30
0.0
 10
1448.468955648298
 20
847.5771349264521
 30
0.0
 10
1448.834550915755
 20
848.1752668042061
 30
0.0
 10
1449.108179421507
 20
848.6229365267675
 30
0.0
  0
ARC
  5
2C0
330
1F
100
AcDbEntity
  8
0
  6
Continuous
 62
     8
370
    18
100
AcDbCircle
 10
1443.8130175682
 20
839.8404438456
 30
0.0
 40
2.968712302663566
100
AcDbArc
 50
112.8764869256
 51
119.1883353829
  0
ARC
  5
2C1
330
1F
100
AcDbEntity
  8
0
  6
Continuous
 62
     8
370
    18
100
AcDbCircle
 10
1448.2956081937
 20
847.1261005202
 30
0.0
 40
1.703170581844841
100
AcDbArc
 50
61.5042694372
 51
85.5824447659
  0
ARC
  5
2C2
330
1F
100
AcDbEntity
  8
0
  6
Continuous
 62
     8
370
    18
100
AcDbCircle
 10
1386.766617598
 20
839.8404438456
 30
0.0
 40
2.968712302713281
100
AcDbArc
 50
60.8116646171
 51
67.1235130743
  0
SPLINE
  5
2C3
330
1F
100
AcDbEntity
  8
0
  6
Continuous
 62
     8
370
    18
100
AcDbSpline
210
0.0
220
0.0
230
1.0
 70
     8
 71
     3
 72
    17
 73
    13
 74
     0
 42
0.000000001
 43
0.00000001
 40
0.0
 40
0.0
 40
0.0
 40
0.0
 40
0.004510981789951
 40
0.0089278415503385
 40
0.0130797684277644
 40
0.0177777921768913
 40
0.0339670776357921
 40
0.0840600072516124
 40
0.3047425979556426
 40
0.7692822253148902
 40
0.8273200843747817
 40
1.0
 40
1.0
 40
1.0
 40
1.0
 10
1387.920692276983
 20
842.5756521322943
 30
0.0
 10
1387.925011564921
 20
842.5738883434833
 30
0.0
 10
1387.933560018478
 20
842.570397567469
 30
0.0
 10
1387.932367559729
 20
842.5721121032655
 30
0.0
 10
1387.917518463435
 20
842.5804330091155
 30
0.0
 10
1387.870579851863
 20
842.6051030605519
 30
0.0
 10
1387.688235325987
 20
842.6983152523632
 30
0.0
 10
1386.920228269727
 20
843.1022591936901
 30
0.0
 10
1385.023312486579
 20
844.293372562939
 30
0.0
 10
1383.379337373253
 20
845.8904850895126
 30
0.0
 10
1382.110679517947
 20
847.5771349264514
 30
0.0
 10
1381.74508425049
 20
848.1752668042054
 30
0.0
 10
1381.471455744737
 20
848.6229365267669
 30
0.0
  0
ARC
  5
2C4
330
1F
100
AcDbEntity
  8
0
  6
Continuous
 62
     8
370
    18
100
AcDbCircle
 10
1382.2840269725
 20
847.1261005201
 30
0.0
 40
1.703170581860226
100
AcDbArc
 50
94.4175552344
 51
118.4957305629
  0
ARC
  5
2C5
330
1F
100
AcDbEntity
  8
0
  6
Continuous
 62
     8
370
    18
100
AcDbCircle
 10
1415.2529795435
 20
998.4044939905
 30
0.0
 40
105.5675478708776
100
AcDbArc
 50
288.5592662704
 51
288.9867308475
  0
SPLINE
  5
2C6
330
1F
100
AcDbEntity
  8
0
  6
Continuous
 62
     8
370
    18
100
AcDbSpline
210
0.0
220
0.0
230
1.0
 70
     8
 71
     3
 72
    10
 73
     6
 74
     0
 42
0.000000001
 43
0.00000001
 40
0.0
 40
0.0
 40
0.0
 40
0.0
 40
0.0049102993503908
 40
0.1151643441716951
 40
1.0
 40
1.0
 40
1.0
 40
1.0
 10
1452.850333786693
 20
887.7411817430086
 30
0.0
 10
1452.845703706666
 20
887.7591173050943
 30
0.0
 10
1452.737111522822
 20
888.1797713421594
 30
0.0
 10
1451.778365926311
 20
891.8285609673328
 30
0.0
 10
1450.624930703283
 20
895.4025032575584
 30
0.0
 10
1449.599293907568
 20
898.5804595445139
 30
0.0
  0
SPLINE
  5
2C7
330
1F
100
AcDbEntity
  8
0
  6
Continuous
 62
     8
370
    18
100
AcDbSpline
210
0.0
220
0.0
230
1.0
 70
     8
 71
     3
 72
    10
 73
     6
 74
     0
 42
0.000000001
 43
0.00000001
 40
0.0
 40
0.0
 40
0.0
 40
0.0
 40
0.0049102993503896
 40
0.1151643441716921
 40
1.0
 40
1.0
 40
1.0
 40
1.0
 10
1377.729301379552
 20
887.741181743008
 30
0.0
 10
1377.733931459579
 20
887.7591173050936
 30
0.0
 10
1377.842523643422
 20
888.1797713421587
 30
0.0
 10
1378.801269239934
 20
891.8285609673321
 30
0.0
 10
1379.954704462962
 20
895.4025032575577
 30
0.0
 10
1380.980341258678
 20
898.5804595445134
 30
0.0
  0
ARC
  5
2C8
330
1F
100
AcDbEntity
  8
0
  6
Continuous
 62
     8
370
    18
100
AcDbCircle
 10
1415.3266556192
 20
998.4044939801
 30
0.0
 40
105.5675478598711
100
AcDbArc
 50
251.0132691525
 51
251.4407337296
  0
ARC
  5
2C9
330
1F
100
AcDbEntity
  8
0
  6
Continuous
 62
     8
370
    18
100
AcDbCircle
 10
1449.5939816773
 20
904.9085699647
 30
0.0
 40
2.992681724142837
100
AcDbArc
 50
208.4544255779
 51
226.4525487523
  0
SPLINE
  5
2CA
330
1F
100
AcDbEntity
  8
0
  6
Continuous
 62
     8
370
    18
100
AcDbSpline
210
0.0
220
0.0
230
1.0
 70
     8
 71
     3
 72
    15
 73
    11
 74
     0
 42
0.000000001
 43
0.00000001
 40
0.0
 40
0.0
 40
0.0
 40
0.0
 40
0.3092031051605585
 40
0.663838255257455
 40
0.803986173963673
 40
0.9077221477257735
 40
0.9361281220494168
 40
0.9546919441403823
 40
0.978908979412591
 40
1.0
 40
1.0
 40
1.0
 40
1.0
 10
1449.599293907568
 20
898.5804595445139
 30
0.0
 10
1449.415334438852
 20
899.0681790542423
 30
0.0
 10
1449.020385841273
 20
900.1152800147092
 30
0.0
 10
1448.370848177997
 20
901.3164659173993
 30
0.0
 10
1447.870367340432
 20
902.1725435979439
 30
0.0
 10
1447.647670839834
 20
902.5346732669319
 30
0.0
 10
1447.552502515574
 20
902.6840159643856
 30
0.0
 10
1447.523228968723
 20
902.7333753078107
 30
0.0
 10
1447.514594495007
 20
902.7541770290358
 30
0.0
 10
1447.526579395934
 20
902.74413619444
 30
0.0
 10
1447.532158399212
 20
902.7394621592126
 30
0.0
  0
SPLINE
  5
2CB
330
1F
100
AcDbEntity
  8
0
  6
Continuous
 62
     8
370
    18
100
AcDbSpline
210
0.0
220
0.0
230
1.0
 70
     8
 71
     3
 72
    15
 73
    11
 74
     0
 42
0.000000001
 43
0.00000001
 40
0.0
 40
0.0
 40
0.0
 40
0.0
 40
0.3092031051605585
 40
0.663838255257455
 40
0.803986173963673
 40
0.9077221477257735
 40
0.9361281220494168
 40
0.9546919441403823
 40
0.978908979412591
 40
1.0
 40
1.0
 40
1.0
 40
1.0
 10
1380.980341258678
 20
898.5804595445134
 30
0.0
 10
1381.164300727393
 20
899.0681790542416
 30
0.0
 10
1381.559249324972
 20
900.1152800147087
 30
0.0
 10
1382.208786988248
 20
901.3164659173988
 30
0.0
 10
1382.709267825813
 20
902.1725435979431
 30
0.0
 10
1382.931964326412
 20
902.5346732669313
 30
0.0
 10
1383.027132650672
 20
902.6840159643849
 30
0.0
 10
1383.056406197522
 20
902.73337530781
 30
0.0
 10
1383.065040671238
 20
902.7541770290352
 30
0.0
 10
1383.053055770312
 20
902.7441361944392
 30
0.0
 10
1383.047476767033
 20
902.7394621592119
 30
0.0
  0
ARC
  5
2CC
330
1F
100
AcDbEntity
  8
0
  6
Continuous
 62
     8
370
    18
100
AcDbCircle
 10
1380.985653489
 20
904.9085699647
 30
0.0
 40
2.992681724087442
100
AcDbArc
 50
313.5474512476
 51
331.5455744223
  0
LINE
  5
2CD
330
1F
100
AcDbEntity
  8
0
  6
Continuous
 62
     8
370
    18
100
AcDbLine
 10
1449.200845991
 20
848.7864737035
 30
0.0
 11
1450.132937029
 21
850.6764254634
 31
0.0
  0
ARC
  5
2CE
330
1F
100
AcDbEntity
  8
0
  6
Continuous
 62
     8
370
    18
100
AcDbCircle
 10
1448.4034109263
 20
847.2780394248
 30
0.0
 40
1.70624636430975
100
AcDbArc
 50
62.1367925984
 51
86.623111242
  0
ARC
  5
2CF
330
1F
100
AcDbEntity
  8
0
  6
Continuous
 62
     8
370
    18
100
AcDbCircle
 10
1382.17622424
 20
847.2780394248
 30
0.0
 40
1.70624636431124
100
AcDbArc
 50
93.3768887581
 51
117.8632074016
  0
LINE
  5
2D0
330
1F
100
AcDbEntity
  8
0
  6
Continuous
 62
     8
370
    18
100
AcDbLine
 10
1381.3787891752
 20
848.7864737035
 30
0.0
 11
1380.4466981373
 21
850.6764254634
 31
0.0
  0
ARC
  5
2D1
330
1F
100
AcDbEntity
  8
0
  6
Continuous
 62
     8
370
    18
100
AcDbCircle
 10
1449.6217466409
 20
900.3269947011
 30
0.0
 40
12.99332377701484
100
AcDbArc
 50
284.3876121929
 51
286.8712772964
  0
ARC
  5
2D2
330
1F
100
AcDbEntity
  8
0
  6
Continuous
 62
     8
370
    18
100
AcDbCircle
 10
1461.0345848009
 20
875.871721148
 30
0.0
 40
27.45266560431713
100
AcDbArc
 50
246.6025480367
 51
247.6829243032
  0
ARC
  5
2D3
330
1F
100
AcDbEntity
  8
0
  6
Continuous
 62
     8
370
    18
100
AcDbCircle
 10
1380.9578885251
 20
900.3269947001
 30
0.0
 40
12.9933237759949
100
AcDbArc
 50
253.1287227035
 51
255.6123878072
  0
ARC
  5
2D4
330
1F
100
AcDbEntity
  8
0
  6
Continuous
 62
     8
370
    18
100
AcDbCircle
 10
1369.5450503636
 20
875.871721152
 30
0.0
 40
27.45266560866886
100
AcDbArc
 50
292.3170756969
 51
293.3974519632
  0
LINE
  5
2D5
330
1F
100
AcDbEntity
  8
0
  6
Continuous
 62
     8
370
    18
100
AcDbLine
 10
1449.1081794215
 20
848.6229365268
 30
0.0
 11
1449.200845991
 21
848.7864737035
 31
0.0
  0
LINE
  5
2D6
330
1F
100
AcDbEntity
  8
0
  6
Continuous
 62
     8
370
    18
100
AcDbLine
 10
1381.4714557447
 20
848.6229365268
 30
0.0
 11
1381.3787891752
 21
848.7864737035
 31
0.0
  0
ARC
  5
2D7
330
1F
100
AcDbEntity
  8
0
  6
Continuous
 62
     8
370
    18
100
AcDbCircle
 10
1448.5742216648
 20
847.6833196227
 30
0.0
 40
1.080736236285633
100
AcDbArc
 50
35.0981925254
 51
60.3916535263
  0
ARC
  5
2D8
330
1F
100
AcDbEntity
  8
0
  6
Continuous
 62
     8
370
    18
100
AcDbCircle
 10
1382.0054135015
 20
847.6833196227
 30
0.0
 40
1.080736236286447
100
AcDbArc
 50
119.6083464738
 51
144.9018074746
  0
ARC
  5
2D9
330
1F
100
AcDbEntity
  8
0
  6
Continuous
 62
     8
370
    18
100
AcDbCircle
 10
1407.8062555306
 20
1019.9497501601
 30
0.0
 40
128.3634011754116
100
AcDbArc
 50
289.0009454547
 51
289.2355634086
  0
ARC
  5
2DA
330
1F
100
AcDbEntity
  8
0
  6
Continuous
 62
     8
370
    18
100
AcDbCircle
 10
1422.773379606
 20
1019.9497500746
 30
0.0
 40
128.3634010848468
100
AcDbArc
 50
250.7644365913
 51
250.9990545454
  0
ARC
  5
2DB
330
1F
100
AcDbEntity
  8
0
  6
Continuous
 62
     8
370
    18
100
AcDbCircle
 10
1444.4139299984
 20
840.0798770857
 30
0.0
 40
2.993339415879952
100
AcDbArc
 50
114.936231731
 51
120.8121245743
  0
ARC
  5
2DC
330
1F
100
AcDbEntity
  8
0
  6
Continuous
 62
     8
370
    18
100
AcDbCircle
 10
1386.1657051678
 20
840.0798770855
 30
0.0
 40
2.993339416054376
100
AcDbArc
 50
59.1878754259
 51
65.0637682688
  0
ARC
  5
2DD
330
1F
100
AcDbEntity
  8
0
  6
Continuous
 62
     8
370
    18
100
AcDbCircle
 10
1449.7864976272
 20
904.7298501302
 30
0.0
 40
2.99843234227595
100
AcDbArc
 50
207.1895966032
 51
225.2949287513
  0
ARC
  5
2DE
330
1F
100
AcDbEntity
  8
0
  6
Continuous
 62
     8
370
    18
100
AcDbCircle
 10
1380.7931375391
 20
904.7298501302
 30
0.0
 40
2.998432342272897
100
AcDbArc
 50
314.7050712487
 51
332.8104033968
  0
SPLINE
  5
2DF
330
1F
100
AcDbEntity
  8
0
  6
Continuous
 62
     8
370
    18
100
AcDbSpline
210
0.0
220
0.0
230
1.0
 70
     8
 71
     3
 72
    14
 73
    10
 74
     0
 42
0.000000001
 43
0.00000001
 40
0.0
 40
0.0
 40
0.0
 40
0.0
 40
0.1092374782649563
 40
0.2581253635232557
 40
0.4079301969034828
 40
0.5608445870787377
 40
0.7149451852854186
 40
0.9256729043337086
 40
1.0
 40
1.0
 40
1.0
 40
1.0
 10
1450.456541471525
 20
849.6183256408316
 30
0.0
 10
1450.626444592962
 20
850.0029168559472
 30
0.0
 10
1451.02792131763
 20
850.9116960477263
 30
0.0
 10
1451.638245478488
 20
852.451040921947
 30
0.0
 10
1452.275481608962
 20
854.2504771871367
 30
0.0
 10
1452.870167274468
 20
856.1692647505702
 30
0.0
 10
1453.465614012785
 20
858.4478136056844
 30
0.0
 10
1453.916723719306
 20
860.4548244685753
 30
0.0
 10
1454.116288754408
 20
861.811771216943
 30
0.0
 10
1454.168324674132
 20
862.1655905722869
 30
0.0
  0
LWPOLYLINE
  5
2E0
330
1F
100
AcDbEntity
  8
0
  6
Continuous
 62
     8
370
    18
100
AcDbPolyline
 90
        3
 70
   128
 43
0.0
 10
1450.4565414715
 20
849.6183256408
 10
1450.1368448008
 20
849.6277404497
 10
1450.1177164038
 20
849.6272899347
  0
LWPOLYLINE
  5
2E1
330
1F
100
AcDbEntity
  8
0
  6
Continuous
 62
     8
370
    18
100
AcDbPolyline
 90
        9
 70
   128
 43
0.0
 10
1450.4565414715
 20
849.6183256408
 10
1452.4038763694
 20
850.1610360584
 10
1454.2067088883
 20
850.9230442439
 10
1455.8186352415
 20
851.8847365809
 10
1457.1981654479
 20
853.0213597072
 10
1458.3097912586
 20
854.303657651
 10
1459.1249001171
 20
855.6986248614
 10
1459.6225116288
 20
857.1703557505
 10
1459.7898175831
 20
858.6809688814
  0
SPLINE
  5
2E2
330
1F
100
AcDbEntity
  8
0
  6
Continuous
 62
     8
370
    18
100
AcDbSpline
210
0.0
220
0.0
230
1.0
 70
     8
 71
     3
 72
     9
 73
     5
 74
     0
 42
0.000000001
 43
0.00000001
 40
0.0
 40
0.0
 40
0.0
 40
0.0
 40
0.5770474436019423
 40
1.0
 40
1.0
 40
1.0
 40
1.0
 10
1446.789817583122
 20
844.3910798506885
 30
0.0
 10
1447.581107103898
 20
845.2458760153482
 30
0.0
 10
1448.952380002773
 20
846.7272033726346
 30
0.0
 10
1450.009450712537
 20
848.7589803670239
 30
0.0
 10
1450.456541471525
 20
849.6183256408316
 30
0.0
  0
SPLINE
  5
2E3
330
1F
100
AcDbEntity
  8
0
  6
Continuous
 62
     8
370
    18
100
AcDbSpline
210
0.0
220
0.0
230
1.0
 70
     8
 71
     3
 72
    10
 73
     6
 74
     0
 42
0.000000001
 43
0.00000001
 40
0.0
 40
0.0
 40
0.0
 40
0.0
 40
0.3947082167601896
 40
0.7987089853918102
 40
1.0
 40
1.0
 40
1.0
 40
1.0
 10
1446.789817583122
 20
844.3910798506885
 30
0.0
 10
1445.646447042648
 20
843.6610131368585
 30
0.0
 10
1443.332787773518
 20
842.1836918663322
 30
0.0
 10
1440.162919212913
 20
841.0632348040639
 30
0.0
 10
1438.194079186082
 20
840.8983120253358
 30
0.0
 10
1437.53933742752
 20
840.843466619564
 30
0.0
  0
LWPOLYLINE
  5
2E4
330
1F
100
AcDbEntity
  8
0
  6
Continuous
 62
     8
370
    18
100
AcDbPolyline
 90
       10
 70
   128
 43
0.0
 10
1459.7898175831
 20
855.3899630028
 10
1459.5923183723
 20
853.4800269871
 10
1459.0058216533
 20
851.6281234107
 10
1458.0481478323
 20
849.8905214267
 10
1456.7483953437
 20
848.3200171922
 10
1455.146056509
 20
846.9643296836
 10
1453.2898175831
 20
845.8646507798
 10
1451.2360794464
 20
845.0543936679
 10
1449.0472438928
 20
844.5581776001
 10
1446.7898175831
 20
844.3910798507
  0
LINE
  5
2E5
330
1F
100
AcDbEntity
  8
0
  6
Continuous
 62
     8
370
    18
100
AcDbLine
 10
1446.7898175831
 20
840.5350816169
 30
0.0
 11
1446.7898175831
 21
844.3910798507
 31
0.0
  0
SPLINE
  5
2E6
330
1F
100
AcDbEntity
  8
0
  6
Continuous
 62
     8
370
    18
100
AcDbSpline
210
0.0
220
0.0
230
1.0
 70
     8
 71
     3
 72
    17
 73
    13
 74
     0
 42
0.000000001
 43
0.00000001
 40
0.0
 40
0.0
 40
0.0
 40
0.0
 40
0.2229912195127242
 40
0.5008176009814925
 40
0.6858965399884124
 40
0.8665771651904304
 40
0.9279597470317869
 40
0.9497616361808089
 40
0.9717583090124232
 40
0.9770054670052085
 40
0.992237290067689
 40
0.9999999999999999
 40
0.9999999999999999
 40
0.9999999999999999
 40
0.9999999999999999
 10
1385.59085903112
 20
843.9496059378118
 30
0.0
 10
1385.726602320235
 20
843.8491924793894
 30
0.0
 10
1386.031469160071
 20
843.6236731631438
 30
0.0
 10
1386.470000669997
 20
843.3447886216883
 30
0.0
 10
1386.886243298912
 20
843.0941676618785
 30
0.0
 10
1387.166829692702
 20
842.9361042756462
 30
0.0
 10
1387.333941848499
 20
842.8452617498176
 30
0.0
 10
1387.391928071163
 20
842.8139574180539
 30
0.0
 10
1387.413744002065
 20
842.8021540425791
 30
0.0
 10
1387.425567102321
 20
842.7956620783395
 30
0.0
 10
1387.42962425159
 20
842.7933470983187
 30
0.0
 10
1387.428204296117
 20
842.7939624406986
 30
0.0
 10
1387.427724934242
 20
842.7941701737457
 30
0.0
  0
LINE
  5
2E7
330
1F
100
AcDbEntity
  8
0
  6
Continuous
 62
     8
370
    18
100
AcDbLine
 10
1450.2898175831
 20
932.9846816169
 30
0.0
 11
1365.7898175831
 21
932.9846816169
 31
0.0
  0
LINE
  5
2E8
330
1F
100
AcDbEntity
  8
0
  6
Continuous
 62
     8
370
    18
100
AcDbLine
 10
1365.7648175831
 20
922.9846816169
 30
0.0
 11
1364.7648175831
 21
922.9846816169
 31
0.0
  0
LINE
  5
2E9
330
1F
100
AcDbEntity
  8
0
  6
Continuous
 62
     8
370
    18
100
AcDbLine
 10
1365.7648175831
 20
954.4846816169
 30
0.0
 11
1364.7648175831
 21
954.4846816169
 31
0.0
  0
LINE
  5
2EA
330
1F
100
AcDbEntity
  8
0
  6
Continuous
 62
     8
370
    18
100
AcDbLine
 10
1366.7648175831
 20
921.9846816169
 30
0.0
 11
1366.7648175831
 21
920.9846816169
 31
0.0
  0
LINE
  5
2EB
330
1F
100
AcDbEntity
  8
0
  6
Continuous
 62
     8
370
    18
100
AcDbLine
 10
1470.7648175831
 20
920.9846816169
 30
0.0
 11
1470.7648175831
 21
921.9846816169
 31
0.0
  0
LINE
  5
2EC
330
1F
100
AcDbEntity
  8
0
  6
Continuous
 62
     7
370
    35
100
AcDbLine
 10
560.6107245225
 20
699.2803727514
 30
0.0
 11
1140.6107245225
 21
699.2803727514
 31
0.0
  0
LINE
  5
2ED
330
1F
100
AcDbEntity
  8
0
  6
Continuous
 62
     7
370
    35
100
AcDbLine
 10
560.6107245225
 20
700.2803727514
 30
0.0
 11
560.6107245225
 21
699.2803727514
 31
0.0
  0
LINE
  5
2EE
330
1F
100
AcDbEntity
  8
0
  6
Continuous
 62
     7
370
    35
100
AcDbLine
 10
560.6107245225
 20
700.2803727514
 30
0.0
 11
1140.6107245225
 21
700.2803727514
 31
0.0
  0
LINE
  5
2EF
330
1F
100
AcDbEntity
  8
0
  6
Continuous
 62
     7
370
    35
100
AcDbLine
 10
1140.6107245225
 20
700.2803727514
 30
0.0
 11
1140.6107245225
 21
699.2803727514
 31
0.0
  0
LINE
  5
2F0
330
1F
100
AcDbEntity
  8
0
  6
Continuous
 62
     7
370
    35
100
AcDbLine
 10
1140.6107245225
 20
698.2803727514
 30
0.0
 11
1140.6107245225
 21
699.2803727514
 31
0.0
  0
LINE
  5
2F1
330
1F
100
AcDbEntity
  8
0
  6
Continuous
 62
     7
370
    35
100
AcDbLine
 10
560.6107245225
 20
699.2803727514
 30
0.0
 11
560.6107245225
 21
698.2803727514
 31
0.0
  0
LINE
  5
2F2
330
1F
100
AcDbEntity
  8
0
  6
Continuous
 62
     7
370
    35
100
AcDbLine
 10
1140.6107245225
 20
683.7803727514
 30
0.0
 11
1140.6107245225
 21
698.2803727514
 31
0.0
  0
LINE
  5
2F3
330
1F
100
AcDbEntity
  8
0
  6
Continuous
 62
     7
370
    35
100
AcDbLine
 10
560.6107245225
 20
698.2803727514
 30
0.0
 11
560.6107245225
 21
683.7803727514
 31
0.0
  0
LINE
  5
2F4
330
1F
100
AcDbEntity
  8
0
  6
Continuous
 62
     7
370
    35
100
AcDbLine
 10
560.6107245225
 20
682.0483219438
 30
0.0
 11
560.6107245225
 21
683.7803727514
 31
0.0
  0
LINE
  5
2F5
330
1F
100
AcDbEntity
  8
0
  6
Continuous
 62
     7
370
    35
100
AcDbLine
 10
1140.6107245225
 20
683.7803727514
 30
0.0
 11
1140.6107245225
 21
682.0483219438
 31
0.0
  0
LINE
  5
2F6
330
1F
100
AcDbEntity
  8
0
  6
Continuous
 62
     7
370
    35
100
AcDbLine
 10
1140.6107245225
 20
681.7803727514
 30
0.0
 11
560.6107245225
 21
681.7803727514
 31
0.0
  0
LINE
  5
2F7
330
1F
100
AcDbEntity
  8
0
  6
Continuous
 62
     7
370
    35
100
AcDbLine
 10
1140.6107245225
 20
617.6945863137
 30
0.0
 11
1140.6107245225
 21
614.866159189
 31
0.0
  0
LINE
  5
2F8
330
1F
100
AcDbEntity
  8
0
  6
Continuous
 62
     7
370
    35
100
AcDbLine
 10
560.6107245225
 20
614.7803727514
 30
0.0
 11
1140.6107245225
 21
614.7803727514
 31
0.0
  0
LINE
  5
2F9
330
1F
100
AcDbEntity
  8
0
  6
Continuous
 62
     7
370
    35
100
AcDbLine
 10
560.6107245225
 20
614.866159189
 30
0.0
 11
560.6107245225
 21
617.6945863137
 31
0.0
  0
LINE
  5
2FA
330
1F
100
AcDbEntity
  8
0
  6
Continuous
 62
     7
370
    35
100
AcDbLine
 10
560.6107245225
 20
617.7803727514
 30
0.0
 11
1140.6107245225
 21
617.7803727514
 31
0.0
  0
LINE
  5
2FB
330
1F
100
AcDbEntity
  8
0
  6
Continuous
 62
     7
370
    35
100
AcDbLine
 10
560.6107245225
 20
614.7803727514
 30
0.0
 11
560.6107245225
 21
613.7803727514
 31
0.0
  0
LINE
  5
2FC
330
1F
100
AcDbEntity
  8
0
  6
Continuous
 62
     7
370
    35
100
AcDbLine
 10
1140.6107245225
 20
613.7803727514
 30
0.0
 11
1140.6107245225
 21
614.7803727514
 31
0.0
  0
LINE
  5
2FD
330
1F
100
AcDbEntity
  8
0
  6
Continuous
 62
     7
370
    35
100
AcDbLine
 10
1140.6107245225
 20
584.2803727514
 30
0.0
 11
560.6107245225
 21
584.2803727514
 31
0.0
  0
LINE
  5
2FE
330
1F
100
AcDbEntity
  8
0
  6
Continuous
 62
     7
370
    35
100
AcDbLine
 10
560.6107245225
 20
584.2803727514
 30
0.0
 11
560.6107245225
 21
613.7803727514
 31
0.0
  0
LINE
  5
2FF
330
1F
100
AcDbEntity
  8
0
  6
Continuous
 62
     7
370
    35
100
AcDbLine
 10
1140.6107245225
 20
613.7803727514
 30
0.0
 11
1140.6107245225
 21
584.2803727514
 31
0.0
  0
LINE
  5
300
330
1F
100
AcDbEntity
  8
0
  6
Continuous
 62
     7
370
    35
100
AcDbLine
 10
797.6107245225
 20
679.0353524493
 30
0.0
 11
903.6107245225
 21
679.0353524493
 31
0.0
  0
SPLINE
  5
301
330
1F
100
AcDbEntity
  8
0
  6
Continuous
 62
     7
370
    35
100
AcDbSpline
210
0.0
220
0.0
230
1.0
 70
     8
 71
     3
 72
     8
 73
     4
 74
     0
 42
0.000000001
 43
0.00000001
 40
0.0
 40
0.0
 40
0.0
 40
0.0
 40
1.0
 40
1.0
 40
1.0
 40
1.0
 10
790.8434615505678
 20
678.8370881795698
 30
0.0
 10
793.096788541677
 20
678.9675759603707
 30
0.0
 10
795.353605990175
 20
679.0353524493211
 30
0.0
 10
797.6107245224555
 20
679.0353524493211
 30
0.0
  0
SPLINE
  5
302
330
1F
100
AcDbEntity
  8
0
  6
Continuous
 62
     7
370
    35
100
AcDbSpline
210
0.0
220
0.0
230
1.0
 70
     8
 71
     3
 72
     8
 73
     4
 74
     0
 42
0.000000001
 43
0.00000001
 40
0.0
 40
0.0
 40
0.0
 40
0.0
 40
1.0
 40
1.0
 40
1.0
 40
1.0
 10
903.6107245224555
 20
679.0353524493211
 30
0.0
 10
905.867838192201
 20
679.0353524493211
 30
0.0
 10
908.1246601969731
 20
678.9675759781302
 30
0.0
 10
910.3779874943432
 20
678.83708817957
 30
0.0
  0
SPLINE
  5
303
330
1F
100
AcDbEntity
  8
0
  6
Continuous
 62
     7
370
    35
100
AcDbSpline
210
0.0
220
0.0
230
1.0
 70
     8
 71
     3
 72
     8
 73
     4
 74
     0
 42
0.000000001
 43
0.00000001
 40
0.0
 40
0.0
 40
0.0
 40
0.0
 40
1.0
 40
1.0
 40
1.0
 40
1.0
 10
797.6107245224555
 20
620.5253930534066
 30
0.0
 10
795.35361085271
 20
620.5253930534066
 30
0.0
 10
793.0967888479378
 20
620.5931695245974
 30
0.0
 10
790.8434615505676
 20
620.7236573231577
 30
0.0
  0
LINE
  5
304
330
1F
100
AcDbEntity
  8
0
  6
Continuous
 62
     7
370
    35
100
AcDbLine
 10
903.6107245225
 20
620.5253930534
 30
0.0
 11
797.6107245225
 21
620.5253930534
 31
0.0
  0
SPLINE
  5
305
330
1F
100
AcDbEntity
  8
0
  6
Continuous
 62
     7
370
    35
100
AcDbSpline
210
0.0
220
0.0
230
1.0
 70
     8
 71
     3
 72
     8
 73
     4
 74
     0
 42
0.000000001
 43
0.00000001
 40
0.0
 40
0.0
 40
0.0
 40
0.0
 40
1.0
 40
1.0
 40
1.0
 40
1.0
 10
910.3779874943434
 20
620.7236573231578
 30
0.0
 10
908.1246605032339
 20
620.5931695423569
 30
0.0
 10
905.867843054736
 20
620.5253930534066
 30
0.0
 10
903.6107245224555
 20
620.5253930534066
 30
0.0
  0
SPLINE
  5
306
330
1F
100
AcDbEntity
  8
0
  6
Continuous
 62
     7
370
    35
100
AcDbSpline
210
0.0
220
0.0
230
1.0
 70
     8
 71
     3
 72
    10
 73
     6
 74
     0
 42
0.000000001
 43
0.00000001
 40
0.0
 40
0.0
 40
0.0
 40
0.0
 40
0.5
 40
0.5
 40
1.0
 40
1.0
 40
1.0
 40
1.0
 10
903.6107245224555
 20
679.0303727513639
 30
0.0
 10
904.7536846704128
 20
679.0303727513639
 30
0.0
 10
905.8888781481562
 20
679.0140987325353
 30
0.0
 10
908.1444044805272
 20
678.9496643405263
 30
0.0
 10
909.264740426583
 20
678.9015067632204
 30
0.0
 10
910.3779874943434
 20
678.8370655389273
 30
0.0
  0
SPLINE
  5
307
330
1F
100
AcDbEntity
  8
0
  6
Continuous
 62
     7
370
    35
100
AcDbSpline
210
0.0
220
0.0
230
1.0
 70
     8
 71
     3
 72
    10
 73
     6
 74
     0
 42
0.000000001
 43
0.00000001
 40
0.0
 40
0.0
 40
0.0
 40
0.0
 40
0.5
 40
0.5
 40
1.0
 40
1.0
 40
1.0
 40
1.0
 10
903.6107245224555
 20
676.7803727513639
 30
0.0
 10
904.6394642555443
 20
676.7803727513639
 30
0.0
 10
905.6611437318402
 20
676.7217792143548
 30
0.0
 10
907.6910693144869
 20
676.4898165403393
 30
0.0
 10
908.6993188312529
 20
676.3164598260519
 30
0.0
 10
909.7012611971544
 20
676.0844667865924
 30
0.0
  0
SPLINE
  5
308
330
1F
100
AcDbEntity
  8
0
  6
Continuous
 62
     7
370
    35
100
AcDbSpline
210
0.0
220
0.0
230
1.0
 70
     8
 71
     3
 72
    10
 73
     6
 74
     0
 42
0.000000001
 43
0.00000001
 40
0.0
 40
0.0
 40
0.0
 40
0.0
 40
0.5
 40
0.5
 40
1.0
 40
1.0
 40
1.0
 40
1.0
 10
790.8434615505676
 20
678.8370655389273
 30
0.0
 10
791.956708618328
 20
678.9015067632204
 30
0.0
 10
793.0770445643838
 20
678.9496643405263
 30
0.0
 10
795.3325708967548
 20
679.0140987325353
 30
0.0
 10
796.4677643744982
 20
679.0303727513639
 30
0.0
 10
797.6107245224555
 20
679.0303727513639
 30
0.0
  0
SPLINE
  5
309
330
1F
100
AcDbEntity
  8
0
  6
Continuous
 62
     7
370
    35
100
AcDbSpline
210
0.0
220
0.0
230
1.0
 70
     8
 71
     3
 72
    10
 73
     6
 74
     0
 42
0.000000001
 43
0.00000001
 40
0.0
 40
0.0
 40
0.0
 40
0.0
 40
0.5
 40
0.5
 40
1.0
 40
1.0
 40
1.0
 40
1.0
 10
791.5201878477566
 20
676.0844667865923
 30
0.0
 10
792.5221302136581
 20
676.3164598260519
 30
0.0
 10
793.5303797304241
 20
676.4898165403393
 30
0.0
 10
795.5603053130708
 20
676.7217792143548
 30
0.0
 10
796.5819847893666
 20
676.7803727513639
 30
0.0
 10
797.6107245224555
 20
676.7803727513639
 30
0.0
  0
SPLINE
  5
30A
330
1F
100
AcDbEntity
  8
0
  6
Continuous
 62
     7
370
    35
100
AcDbSpline
210
0.0
220
0.0
230
1.0
 70
     8
 71
     3
 72
    10
 73
     6
 74
     0
 42
0.000000001
 43
0.00000001
 40
0.0
 40
0.0
 40
0.0
 40
0.0
 40
0.5
 40
0.5
 40
1.0
 40
1.0
 40
1.0
 40
1.0
 10
797.6107245224555
 20
620.5303727513638
 30
0.0
 10
796.4677643744982
 20
620.5303727513638
 30
0.0
 10
795.3325708967548
 20
620.5466467701922
 30
0.0
 10
793.0770445643836
 20
620.6110811622012
 30
0.0
 10
791.9567086183279
 20
620.6592387395074
 30
0.0
 10
790.8434615505674
 20
620.7236799638004
 30
0.0
  0
SPLINE
  5
30B
330
1F
100
AcDbEntity
  8
0
  6
Continuous
 62
     7
370
    35
100
AcDbSpline
210
0.0
220
0.0
230
1.0
 70
     8
 71
     3
 72
    10
 73
     6
 74
     0
 42
0.000000001
 43
0.00000001
 40
0.0
 40
0.0
 40
0.0
 40
0.0
 40
0.5
 40
0.5
 40
1.0
 40
1.0
 40
1.0
 40
1.0
 10
797.6107245224555
 20
622.7803727513638
 30
0.0
 10
796.5819847893666
 20
622.7803727513638
 30
0.0
 10
795.5603053130708
 20
622.8389662883728
 30
0.0
 10
793.530379730424
 20
623.0709289623882
 30
0.0
 10
792.522130213658
 20
623.2442856766758
 30
0.0
 10
791.5201878477563
 20
623.4762787161353
 30
0.0
  0
SPLINE
  5
30C
330
1F
100
AcDbEntity
  8
0
  6
Continuous
 62
     7
370
    35
100
AcDbSpline
210
0.0
220
0.0
230
1.0
 70
     8
 71
     3
 72
    10
 73
     6
 74
     0
 42
0.000000001
 43
0.00000001
 40
0.0
 40
0.0
 40
0.0
 40
0.0
 40
0.5
 40
0.5
 40
1.0
 40
1.0
 40
1.0
 40
1.0
 10
910.3779874943435
 20
620.7236799638004
 30
0.0
 10
909.2647404265831
 20
620.6592387395074
 30
0.0
 10
908.1444044805273
 20
620.6110811622012
 30
0.0
 10
905.8888781481562
 20
620.5466467701922
 30
0.0
 10
904.7536846704128
 20
620.5303727513638
 30
0.0
 10
903.6107245224555
 20
620.5303727513638
 30
0.0
  0
SPLINE
  5
30D
330
1F
100
AcDbEntity
  8
0
  6
Continuous
 62
     7
370
    35
100
AcDbSpline
210
0.0
220
0.0
230
1.0
 70
     8
 71
     3
 72
    10
 73
     6
 74
     0
 42
0.000000001
 43
0.00000001
 40
0.0
 40
0.0
 40
0.0
 40
0.0
 40
0.5
 40
0.5
 40
1.0
 40
1.0
 40
1.0
 40
1.0
 10
909.7012611971546
 20
623.4762787161353
 30
0.0
 10
908.6993188312529
 20
623.2442856766759
 30
0.0
 10
907.691069314487
 20
623.0709289623882
 30
0.0
 10
905.6611437318402
 20
622.8389662883728
 30
0.0
 10
904.6394642555443
 20
622.7803727513638
 30
0.0
 10
903.6107245224555
 20
622.7803727513638
 30
0.0
  0
LINE
  5
30E
330
1F
100
AcDbEntity
  8
0
  6
Continuous
 62
     7
370
    35
100
AcDbLine
 10
903.6107245225
 20
679.0303727514
 30
0.0
 11
797.6107245225
 21
679.0303727514
 31
0.0
  0
LINE
  5
30F
330
1F
100
AcDbEntity
  8
0
  6
Continuous
 62
     7
370
    35
100
AcDbLine
 10
797.6107245225
 20
676.7803727514
 30
0.0
 11
903.6107245225
 21
676.7803727514
 31
0.0
  0
LINE
  5
310
330
1F
100
AcDbEntity
  8
0
  6
Continuous
 62
     7
370
    35
100
AcDbLine
 10
797.6107245225
 20
620.5303727514
 30
0.0
 11
903.6107245225
 21
620.5303727514
 31
0.0
  0
LINE
  5
311
330
1F
100
AcDbEntity
  8
0
  6
Continuous
 62
     7
370
    35
100
AcDbLine
 10
903.6107245225
 20
622.7803727514
 30
0.0
 11
797.6107245225
 21
622.7803727514
 31
0.0
  0
ARC
  5
312
330
1F
100
AcDbEntity
  8
0
  6
Continuous
 62
     7
370
    35
100
AcDbCircle
 10
903.6107245225
 20
649.7803727514
 30
0.0
 40
27.0000000000001
100
AcDbArc
 50
0.4331051188
 51
76.9632820449
  0
ARC
  5
313
330
1F
100
AcDbEntity
  8
0
  6
Continuous
 62
     7
370
    35
100
AcDbCircle
 10
797.6107245225
 20
649.7803727514
 30
0.0
 40
27.0000000000001
100
AcDbArc
 50
103.0367179551
 51
179.5668948812
  0
ARC
  5
314
330
1F
100
AcDbEntity
  8
0
  6
Continuous
 62
     7
370
    35
100
AcDbCircle
 10
797.6107245225
 20
649.7803727514
 30
0.0
 40
27.0000000000001
100
AcDbArc
 50
180.4331051188
 51
256.9632820449
  0
ARC
  5
315
330
1F
100
AcDbEntity
  8
0
  6
Continuous
 62
     7
370
    35
100
AcDbCircle
 10
903.6107245225
 20
649.7803727514
 30
0.0
 40
27.0000000000001
100
AcDbArc
 50
283.0367179551
 51
359.5668948812
  0
LINE
  5
316
330
1F
100
AcDbEntity
  8
0
  6
Continuous
 62
     7
370
    35
100
AcDbLine
 10
893.6107245225
 20
654.713547254
 30
0.0
 11
894.030325607
 21
657.5798962592
 31
0.0
  0
SPLINE
  5
317
330
1F
100
AcDbEntity
  8
0
  6
Continuous
 62
     7
370
    35
100
AcDbSpline
210
0.0
220
0.0
230
1.0
 70
     8
 71
     3
 72
    11
 73
     7
 74
     0
 42
0.000000001
 43
0.00000001
 40
0.0
 40
0.0
 40
0.0
 40
0.0
 40
0.2606216717109326
 40
0.4632004480822267
 40
0.671366779560812
 40
1.0
 40
1.0
 40
1.0
 40
1.0
 10
894.0303256069571
 20
657.5798962592454
 30
0.0
 10
894.3972069776185
 20
658.5816144390558
 30
0.0
 10
895.0492617901278
 20
660.3619587469341
 30
0.0
 10
896.5866266519506
 20
662.6169583689968
 30
0.0
 10
898.6013924364468
 20
664.8315925493489
 30
0.0
 10
900.4467205222844
 20
665.9520546473209
 30
0.0
 10
901.5764459653275
 20
666.6380110090971
 30
0.0
  0
SPLINE
  5
318
330
1F
100
AcDbEntity
  8
0
  6
Continuous
 62
     7
370
    35
100
AcDbSpline
210
0.0
220
0.0
230
1.0
 70
     8
 71
     3
 72
    16
 73
    12
 74
     0
 42
0.000000001
 43
0.00000001
 40
0.0
 40
0.0
 40
0.0
 40
0.0
 40
0.6093642604521549
 40
0.7233750503883669
 40
0.8172213162021763
 40
0.8496365726798809
 40
0.8823612341657188
 40
0.9067814804504398
 40
0.9311421346358156
 40
0.9706402276081939
 40
1.0
 40
1.0
 40
1.0
 40
1.0
 10
901.5764459653275
 20
666.6380110090971
 30
0.0
 10
902.1532802349168
 20
666.9356660850468
 30
0.0
 10
902.8380390005855
 20
667.2890118086765
 30
0.0
 10
903.5052819717693
 20
667.8147501323341
 30
0.0
 10
903.6755353697474
 20
667.9999031423883
 30
0.0
 10
903.7438088304241
 20
668.1485594425601
 30
0.0
 10
903.7554479714182
 20
668.2421601079419
 30
0.0
 10
903.7309225232048
 20
668.32612279295
 30
0.0
 10
903.6746598155615
 20
668.4042617801232
 30
0.0
 10
903.5915876528973
 20
668.4664589759584
 30
0.0
 10
903.5231667844519
 20
668.4983489051878
 30
0.0
 10
903.4939933397948
 20
668.5119462053482
 30
0.0
  0
SPLINE
  5
319
330
1F
100
AcDbEntity
  8
0
  6
Continuous
 62
     7
370
    35
100
AcDbSpline
210
0.0
220
0.0
230
1.0
 70
     8
 71
     3
 72
    13
 73
     9
 74
     0
 42
0.000000001
 43
0.00000001
 40
0.0
 40
0.0
 40
0.0
 40
0.0
 40
0.1585077763893691
 40
0.3168380823633754
 40
0.4791716695217885
 40
0.6493085002788197
 40
0.823595348237253
 40
1.0
 40
1.0
 40
1.0
 40
1.0
 10
916.138336759615
 20
654.1015254118388
 30
0.0
 10
915.8457616058557
 20
655.1118508636454
 30
0.0
 10
915.2609388749094
 20
657.1313705743188
 30
0.0
 10
913.7649123232222
 20
659.9519733258804
 30
0.0
 10
911.8382336535165
 20
662.5820241338648
 30
0.0
 10
909.4391592557374
 20
664.9449567301133
 30
0.0
 10
906.6468329830034
 20
667.0008490751895
 30
0.0
 10
904.5491624541171
 20
668.0062233646959
 30
0.0
 10
903.4939933397948
 20
668.5119462053482
 30
0.0
  0
SPLINE
  5
31A
330
1F
100
AcDbEntity
  8
0
  6
Continuous
 62
     7
370
    35
100
AcDbSpline
210
0.0
220
0.0
230
1.0
 70
     8
 71
     3
 72
     9
 73
     5
 74
     0
 42
0.000000001
 43
0.00000001
 40
0.0
 40
0.0
 40
0.0
 40
0.0
 40
0.4230848072461902
 40
1.0
 40
1.0
 40
1.0
 40
1.0
 10
916.138336759615
 20
645.4592200908887
 30
0.0
 10
916.3644571658728
 20
646.6739357150437
 30
0.0
 10
916.8989136209026
 20
649.5450282320771
 30
0.0
 10
916.4165941754545
 20
652.4345286951961
 30
0.0
 10
916.138336759615
 20
654.1015254118388
 30
0.0
  0
SPLINE
  5
31B
330
1F
100
AcDbEntity
  8
0
  6
Continuous
 62
     7
370
    35
100
AcDbSpline
210
0.0
220
0.0
230
1.0
 70
     8
 71
     3
 72
    13
 73
     9
 74
     0
 42
0.000000001
 43
0.00000001
 40
0.0
 40
0.0
 40
0.0
 40
0.0
 40
0.1585077763893679
 40
0.3168380823633726
 40
0.4791716695217845
 40
0.6493085002788149
 40
0.8235953482372542
 40
1.0
 40
1.0
 40
1.0
 40
1.0
 10
916.138336759615
 20
645.4592200908887
 30
0.0
 10
915.8457616058557
 20
644.4488946390821
 30
0.0
 10
915.2609388749094
 20
642.4293749284088
 30
0.0
 10
913.7649123232221
 20
639.6087721768472
 30
0.0
 10
911.8382336535165
 20
636.9787213688628
 30
0.0
 10
909.4391592557374
 20
634.6157887726143
 30
0.0
 10
906.6468329830035
 20
632.5598964275378
 30
0.0
 10
904.5491624541171
 20
631.5545221380314
 30
0.0
 10
903.4939933397948
 20
631.0487992973791
 30
0.0
  0
SPLINE
  5
31C
330
1F
100
AcDbEntity
  8
0
  6
Continuous
 62
     7
370
    35
100
AcDbSpline
210
0.0
220
0.0
230
1.0
 70
     8
 71
     3
 72
    16
 73
    12
 74
     0
 42
0.000000001
 43
0.00000001
 40
0.0
 40
0.0
 40
0.0
 40
0.0
 40
0.6093642604521571
 40
0.723375050388367
 40
0.8172213162021764
 40
0.849636572679881
 40
0.8823612341657189
 40
0.9067814804504399
 40
0.9311421346358156
 40
0.9706402276081939
 40
1.0
 40
1.0
 40
1.0
 40
1.0
 10
901.5764459653275
 20
632.9227344936303
 30
0.0
 10
902.1532802349167
 20
632.6250794176806
 30
0.0
 10
902.8380390005854
 20
632.271733694051
 30
0.0
 10
903.5052819717693
 20
631.7459953703933
 30
0.0
 10
903.6755353697474
 20
631.560842360339
 30
0.0
 10
903.7438088304241
 20
631.4121860601672
 30
0.0
 10
903.7554479714182
 20
631.3185853947855
 30
0.0
 10
903.7309225232048
 20
631.2346227097775
 30
0.0
 10
903.6746598155615
 20
631.1564837226041
 30
0.0
 10
903.5915876528973
 20
631.0942865267689
 30
0.0
 10
903.5231667844519
 20
631.0623965975395
 30
0.0
 10
903.4939933397948
 20
631.0487992973791
 30
0.0
  0
SPLINE
  5
31D
330
1F
100
AcDbEntity
  8
0
  6
Continuous
 62
     7
370
    35
100
AcDbSpline
210
0.0
220
0.0
230
1.0
 70
     8
 71
     3
 72
    11
 73
     7
 74
     0
 42
0.000000001
 43
0.00000001
 40
0.0
 40
0.0
 40
0.0
 40
0.0
 40
0.2606216717109334
 40
0.463200448082224
 40
0.671366779560806
 40
0.9999999999999999
 40
0.9999999999999999
 40
0.9999999999999999
 40
0.9999999999999999
 10
894.0303256069571
 20
641.9808492434822
 30
0.0
 10
894.3972069776185
 20
640.9791310636718
 30
0.0
 10
895.0492617901278
 20
639.1987867557935
 30
0.0
 10
896.5866266519506
 20
636.9437871337308
 30
0.0
 10
898.601392436447
 20
634.7291529533787
 30
0.0
 10
900.4467205222844
 20
633.6086908554066
 30
0.0
 10
901.5764459653275
 20
632.9227344936303
 30
0.0
  0
LINE
  5
31E
330
1F
100
AcDbEntity
  8
0
  6
Continuous
 62
     7
370
    35
100
AcDbLine
 10
893.6107245225
 20
644.8471982487
 30
0.0
 11
894.030325607
 21
641.9808492435
 31
0.0
  0
LINE
  5
31F
330
1F
100
AcDbEntity
  8
0
  6
Continuous
 62
     7
370
    35
100
AcDbLine
 10
893.6107245225
 20
644.8471982487
 30
0.0
 11
893.6107245225
 21
654.713547254
 31
0.0
  0
LINE
  5
320
330
1F
100
AcDbEntity
  8
0
  6
Continuous
 62
     7
370
    35
100
AcDbLine
 10
807.6107245225
 20
644.8471982487
 30
0.0
 11
807.191123438
 21
641.9808492435
 31
0.0
  0
SPLINE
  5
321
330
1F
100
AcDbEntity
  8
0
  6
Continuous
 62
     7
370
    35
100
AcDbSpline
210
0.0
220
0.0
230
1.0
 70
     8
 71
     3
 72
    11
 73
     7
 74
     0
 42
0.000000001
 43
0.00000001
 40
0.0
 40
0.0
 40
0.0
 40
0.0
 40
0.2606216717109315
 40
0.4632004480822231
 40
0.6713667795608055
 40
1.0
 40
1.0
 40
1.0
 40
1.0
 10
807.1911234379534
 20
641.9808492434822
 30
0.0
 10
806.8242420672921
 20
640.9791310636718
 30
0.0
 10
806.1721872547826
 20
639.1987867557935
 30
0.0
 10
804.6348223929598
 20
636.9437871337308
 30
0.0
 10
802.6200566084636
 20
634.7291529533787
 30
0.0
 10
800.7747285226262
 20
633.6086908554066
 30
0.0
 10
799.645003079583
 20
632.9227344936303
 30
0.0
  0
SPLINE
  5
322
330
1F
100
AcDbEntity
  8
0
  6
Continuous
 62
     7
370
    35
100
AcDbSpline
210
0.0
220
0.0
230
1.0
 70
     8
 71
     3
 72
    16
 73
    12
 74
     0
 42
0.000000001
 43
0.00000001
 40
0.0
 40
0.0
 40
0.0
 40
0.0
 40
0.6093642604521555
 40
0.7233750503883672
 40
0.8172213162021765
 40
0.8496365726798811
 40
0.8823612341657189
 40
0.9067814804504399
 40
0.9311421346358157
 40
0.970640227608194
 40
1.0
 40
1.0
 40
1.0
 40
1.0
 10
799.645003079583
 20
632.9227344936303
 30
0.0
 10
799.0681688099937
 20
632.6250794176806
 30
0.0
 10
798.383410044325
 20
632.271733694051
 30
0.0
 10
797.7161670731413
 20
631.7459953703933
 30
0.0
 10
797.5459136751631
 20
631.560842360339
 30
0.0
 10
797.4776402144863
 20
631.4121860601672
 30
0.0
 10
797.4660010734923
 20
631.3185853947856
 30
0.0
 10
797.4905265217059
 20
631.2346227097775
 30
0.0
 10
797.5467892293491
 20
631.1564837226043
 30
0.0
 10
797.6298613920133
 20
631.0942865267689
 30
0.0
 10
797.6982822604587
 20
631.0623965975395
 30
0.0
 10
797.7274557051157
 20
631.0487992973791
 30
0.0
  0
SPLINE
  5
323
330
1F
100
AcDbEntity
  8
0
  6
Continuous
 62
     7
370
    35
100
AcDbSpline
210
0.0
220
0.0
230
1.0
 70
     8
 71
     3
 72
    13
 73
     9
 74
     0
 42
0.000000001
 43
0.00000001
 40
0.0
 40
0.0
 40
0.0
 40
0.0
 40
0.1585077763893677
 40
0.3168380823633721
 40
0.4791716695217855
 40
0.6493085002788154
 40
0.8235953482372544
 40
1.0
 40
1.0
 40
1.0
 40
1.0
 10
785.0831122852956
 20
645.4592200908887
 30
0.0
 10
785.3756874390548
 20
644.4488946390821
 30
0.0
 10
785.9605101700013
 20
642.4293749284088
 30
0.0
 10
787.4565367216883
 20
639.6087721768472
 30
0.0
 10
789.3832153913941
 20
636.9787213688628
 30
0.0
 10
791.7822897891731
 20
634.6157887726143
 30
0.0
 10
794.574616061907
 20
632.5598964275378
 30
0.0
 10
796.6722865907934
 20
631.5545221380314
 30
0.0
 10
797.7274557051157
 20
631.0487992973791
 30
0.0
  0
SPLINE
  5
324
330
1F
100
AcDbEntity
  8
0
  6
Continuous
 62
     7
370
    35
100
AcDbSpline
210
0.0
220
0.0
230
1.0
 70
     8
 71
     3
 72
     9
 73
     5
 74
     0
 42
0.000000001
 43
0.00000001
 40
0.0
 40
0.0
 40
0.0
 40
0.0
 40
0.4230848072461901
 40
1.0
 40
1.0
 40
1.0
 40
1.0
 10
785.0831122852956
 20
645.4592200908887
 30
0.0
 10
784.8569918790377
 20
646.6739357150439
 30
0.0
 10
784.3225354240078
 20
649.5450282320772
 30
0.0
 10
784.8048548694559
 20
652.4345286951963
 30
0.0
 10
785.0831122852956
 20
654.1015254118389
 30
0.0
  0
SPLINE
  5
325
330
1F
100
AcDbEntity
  8
0
  6
Continuous
 62
     7
370
    35
100
AcDbSpline
210
0.0
220
0.0
230
1.0
 70
     8
 71
     3
 72
    13
 73
     9
 74
     0
 42
0.000000001
 43
0.00000001
 40
0.0
 40
0.0
 40
0.0
 40
0.0
 40
0.1585077763893688
 40
0.3168380823633748
 40
0.4791716695217892
 40
0.6493085002788206
 40
0.8235953482372533
 40
1.0
 40
1.0
 40
1.0
 40
1.0
 10
785.0831122852956
 20
654.1015254118389
 30
0.0
 10
785.3756874390548
 20
655.1118508636455
 30
0.0
 10
785.9605101700013
 20
657.1313705743188
 30
0.0
 10
787.4565367216883
 20
659.9519733258804
 30
0.0
 10
789.3832153913941
 20
662.5820241338648
 30
0.0
 10
791.782289789173
 20
664.9449567301133
 30
0.0
 10
794.5746160619071
 20
667.0008490751895
 30
0.0
 10
796.6722865907934
 20
668.0062233646959
 30
0.0
 10
797.7274557051156
 20
668.5119462053482
 30
0.0
  0
SPLINE
  5
326
330
1F
100
AcDbEntity
  8
0
  6
Continuous
 62
     7
370
    35
100
AcDbSpline
210
0.0
220
0.0
230
1.0
 70
     8
 71
     3
 72
    16
 73
    12
 74
     0
 42
0.000000001
 43
0.00000001
 40
0.0
 40
0.0
 40
0.0
 40
0.0
 40
0.6093642604521534
 40
0.723375050388367
 40
0.8172213162021763
 40
0.8496365726798809
 40
0.8823612341657187
 40
0.9067814804504397
 40
0.9311421346358155
 40
0.9706402276081938
 40
0.9999999999999999
 40
0.9999999999999999
 40
0.9999999999999999
 40
0.9999999999999999
 10
799.645003079583
 20
666.6380110090971
 30
0.0
 10
799.0681688099937
 20
666.9356660850468
 30
0.0
 10
798.383410044325
 20
667.2890118086765
 30
0.0
 10
797.7161670731412
 20
667.8147501323341
 30
0.0
 10
797.5459136751631
 20
667.9999031423883
 30
0.0
 10
797.4776402144863
 20
668.1485594425601
 30
0.0
 10
797.4660010734923
 20
668.2421601079419
 30
0.0
 10
797.4905265217059
 20
668.32612279295
 30
0.0
 10
797.5467892293491
 20
668.4042617801232
 30
0.0
 10
797.6298613920133
 20
668.4664589759584
 30
0.0
 10
797.6982822604587
 20
668.4983489051878
 30
0.0
 10
797.7274557051157
 20
668.5119462053482
 30
0.0
  0
SPLINE
  5
327
330
1F
100
AcDbEntity
  8
0
  6
Continuous
 62
     7
370
    35
100
AcDbSpline
210
0.0
220
0.0
230
1.0
 70
     8
 71
     3
 72
    11
 73
     7
 74
     0
 42
0.000000001
 43
0.00000001
 40
0.0
 40
0.0
 40
0.0
 40
0.0
 40
0.2606216717109347
 40
0.4632004480822279
 40
0.6713667795608129
 40
1.0
 40
1.0
 40
1.0
 40
1.0
 10
807.1911234379534
 20
657.5798962592454
 30
0.0
 10
806.8242420672921
 20
658.5816144390558
 30
0.0
 10
806.1721872547826
 20
660.3619587469341
 30
0.0
 10
804.6348223929598
 20
662.6169583689968
 30
0.0
 10
802.6200566084638
 20
664.8315925493489
 30
0.0
 10
800.7747285226262
 20
665.9520546473209
 30
0.0
 10
799.645003079583
 20
666.6380110090971
 30
0.0
  0
LINE
  5
328
330
1F
100
AcDbEntity
  8
0
  6
Continuous
 62
     7
370
    35
100
AcDbLine
 10
807.6107245225
 20
654.713547254
 30
0.0
 11
807.191123438
 21
657.5798962592
 31
0.0
  0
LINE
  5
329
330
1F
100
AcDbEntity
  8
0
  6
Continuous
 62
     7
370
    35
100
AcDbLine
 10
807.6107245225
 20
644.8471982487
 30
0.0
 11
807.6107245225
 21
654.713547254
 31
0.0
  0
SPLINE
  5
32A
330
1F
100
AcDbEntity
  8
0
  6
Continuous
 62
     7
370
    35
100
AcDbSpline
210
0.0
220
0.0
230
1.0
 70
     8
 71
     3
 72
    17
 73
    13
 74
     0
 42
0.000000001
 43
0.00000001
 40
0.0
 40
0.0
 40
0.0
 40
0.0
 40
0.0364925733413331
 40
0.1833587448077187
 40
0.2877156143828467
 40
0.3934837304905567
 40
0.4992474923956521
 40
0.6063189697897156
 40
0.7133499989193072
 40
0.8177518468878904
 40
0.9088657685707866
 40
1.0
 40
1.0
 40
1.0
 40
1.0
 10
903.6107245224554
 20
671.5216452188994
 30
0.0
 10
904.0255301584551
 20
671.5138405559563
 30
0.0
 10
906.1097416511523
 20
671.4746256398835
 30
0.0
 10
909.3653199712459
 20
670.8864419011096
 30
0.0
 10
913.165967859037
 20
669.4215114503522
 30
0.0
 10
916.2633976569304
 20
667.5704685761634
 30
0.0
 10
919.0520123589991
 20
665.2337320854165
 30
0.0
 10
921.4056315091424
 20
662.4384489014418
 30
0.0
 10
923.2600619147975
 20
659.308652654655
 30
0.0
 10
924.5034861508606
 20
656.0872046857406
 30
0.0
 10
925.2153339319996
 20
652.8903285407413
 30
0.0
 10
925.3045594715467
 20
650.8171016946688
 30
0.0
 10
925.3491772129703
 20
649.7803727513638
 30
0.0
  0
SPLINE
  5
32B
330
1F
100
AcDbEntity
  8
0
  6
Continuous
 62
     7
370
    35
100
AcDbSpline
210
0.0
220
0.0
230
1.0
 70
     8
 71
     3
 72
    17
 73
    13
 74
     0
 42
0.000000001
 43
0.00000001
 40
0.0
 40
0.0
 40
0.0
 40
0.0
 40
0.036492573341333
 40
0.1833587448077184
 40
0.2877156143828462
 40
0.3934837304905568
 40
0.4992474923956528
 40
0.606318969789716
 40
0.7133499989193074
 40
0.8177518468878905
 40
0.9088657685707868
 40
1.0
 40
1.0
 40
1.0
 40
1.0
 10
797.6107245224553
 20
671.5216452188994
 30
0.0
 10
797.1959188864554
 20
671.5138405559564
 30
0.0
 10
795.1117073937583
 20
671.4746256398835
 30
0.0
 10
791.8561290736648
 20
670.8864419011096
 30
0.0
 10
788.0554811858734
 20
669.4215114503522
 30
0.0
 10
784.9580513879802
 20
667.5704685761634
 30
0.0
 10
782.1694366859113
 20
665.2337320854165
 30
0.0
 10
779.8158175357682
 20
662.4384489014418
 30
0.0
 10
777.9613871301129
 20
659.3086526546551
 30
0.0
 10
776.7179628940498
 20
656.0872046857406
 30
0.0
 10
776.0061151129108
 20
652.8903285407414
 30
0.0
 10
775.9168895733637
 20
650.8171016946688
 30
0.0
 10
775.8722718319401
 20
649.7803727513638
 30
0.0
  0
SPLINE
  5
32C
330
1F
100
AcDbEntity
  8
0
  6
Continuous
 62
     7
370
    35
100
AcDbSpline
210
0.0
220
0.0
230
1.0
 70
     8
 71
     3
 72
    17
 73
    13
 74
     0
 42
0.000000001
 43
0.00000001
 40
0.0
 40
0.0
 40
0.0
 40
0.0
 40
0.0364925733413329
 40
0.1833587448077177
 40
0.287715614382845
 40
0.3934837304905572
 40
0.4992474923956551
 40
0.606318969789718
 40
0.713349998919309
 40
0.8177518468878914
 40
0.9088657685707872
 40
1.0
 40
1.0
 40
1.0
 40
1.0
 10
797.6107245224553
 20
628.039100283828
 30
0.0
 10
797.1959188864554
 20
628.0469049467711
 30
0.0
 10
795.1117073937583
 20
628.0861198628439
 30
0.0
 10
791.8561290736646
 20
628.6743036016178
 30
0.0
 10
788.0554811858734
 20
630.1392340523751
 30
0.0
 10
784.9580513879802
 20
631.9902769265641
 30
0.0
 10
782.1694366859113
 20
634.3270134173112
 30
0.0
 10
779.8158175357682
 20
637.1222966012858
 30
0.0
 10
777.9613871301129
 20
640.2520928480725
 30
0.0
 10
776.7179628940498
 20
643.473540816987
 30
0.0
 10
776.006115112911
 20
646.6704169619862
 30
0.0
 10
775.9168895733637
 20
648.7436438080588
 30
0.0
 10
775.8722718319401
 20
649.7803727513638
 30
0.0
  0
SPLINE
  5
32D
330
1F
100
AcDbEntity
  8
0
  6
Continuous
 62
     7
370
    35
100
AcDbSpline
210
0.0
220
0.0
230
1.0
 70
     8
 71
     3
 72
    17
 73
    13
 74
     0
 42
0.000000001
 43
0.00000001
 40
0.0
 40
0.0
 40
0.0
 40
0.0
 40
0.0364925733413329
 40
0.1833587448077179
 40
0.2877156143828453
 40
0.3934837304905568
 40
0.4992474923956544
 40
0.6063189697897173
 40
0.7133499989193084
 40
0.8177518468878908
 40
0.9088657685707868
 40
1.0
 40
1.0
 40
1.0
 40
1.0
 10
903.6107245224551
 20
628.039100283828
 30
0.0
 10
904.0255301584551
 20
628.0469049467711
 30
0.0
 10
906.1097416511523
 20
628.0861198628439
 30
0.0
 10
909.3653199712458
 20
628.6743036016178
 30
0.0
 10
913.165967859037
 20
630.1392340523751
 30
0.0
 10
916.2633976569304
 20
631.9902769265641
 30
0.0
 10
919.0520123589991
 20
634.3270134173112
 30
0.0
 10
921.4056315091424
 20
637.1222966012858
 30
0.0
 10
923.2600619147977
 20
640.2520928480725
 30
0.0
 10
924.5034861508606
 20
643.473540816987
 30
0.0
 10
925.2153339319996
 20
646.6704169619862
 30
0.0
 10
925.3045594715467
 20
648.7436438080587
 30
0.0
 10
925.3491772129703
 20
649.7803727513638
 30
0.0
  0
LINE
  5
32E
330
1F
100
AcDbEntity
  8
0
  6
Continuous
 62
     7
370
    35
100
AcDbLine
 10
807.4545533323
 20
643.7803727514
 30
0.0
 11
893.7668957127
 21
643.7803727514
 31
0.0
  0
LINE
  5
32F
330
1F
100
AcDbEntity
  8
0
  6
Continuous
 62
     7
370
    35
100
AcDbLine
 10
903.6107245225
 20
671.5216452189
 30
0.0
 11
797.6107245225
 21
671.5216452189
 31
0.0
  0
LINE
  5
330
330
1F
100
AcDbEntity
  8
0
  6
Continuous
 62
     7
370
    35
100
AcDbLine
 10
903.6107245225
 20
628.0391002838
 30
0.0
 11
797.6107245225
 21
628.0391002838
 31
0.0
  0
LINE
  5
331
330
1F
100
AcDbEntity
  8
0
  6
Continuous
 62
     7
370
    35
100
AcDbLine
 10
807.4545533323
 20
655.7803727514
 30
0.0
 11
893.7668957127
 21
655.7803727514
 31
0.0
  0
LINE
  5
332
330
1F
100
AcDbEntity
  8
0
  6
Continuous
 62
     7
370
    35
100
AcDbLine
 10
903.6107245225
 20
671.5303727514
 30
0.0
 11
797.6107245225
 21
671.5303727514
 31
0.0
  0
ARC
  5
333
330
1F
100
AcDbEntity
  8
0
  6
Continuous
 62
     7
370
    35
100
AcDbCircle
 10
903.6107245225
 20
649.7803727514
 30
0.0
 40
21.75000000000023
100
AcDbArc
 50
270.0
 51
90.0
  0
ARC
  5
334
330
1F
100
AcDbEntity
  8
0
  6
Continuous
 62
     7
370
    35
100
AcDbCircle
 10
797.6107245225
 20
649.7803727514
 30
0.0
 40
21.75000000000023
100
AcDbArc
 50
90.0
 51
270.0
  0
LINE
  5
335
330
1F
100
AcDbEntity
  8
0
  6
Continuous
 62
     7
370
    35
100
AcDbLine
 10
903.6107245225
 20
628.0303727514
 30
0.0
 11
797.6107245225
 21
628.0303727514
 31
0.0
  0
LINE
  5
336
330
1F
100
AcDbEntity
  8
0
  6
Continuous
 62
     7
370
    35
100
AcDbLine
 10
1142.6107245225
 20
614.7803727514
 30
0.0
 11
1141.6107245225
 21
614.7803727514
 31
0.0
  0
LINE
  5
337
330
1F
100
AcDbEntity
  8
0
  6
Continuous
 62
     7
370
    35
100
AcDbLine
 10
1141.6107245225
 20
699.2803727514
 30
0.0
 11
1142.6107245225
 21
699.2803727514
 31
0.0
  0
LINE
  5
338
330
1F
100
AcDbEntity
  8
0
  6
Continuous
 62
     7
370
    35
100
AcDbLine
 10
1142.6107245225
 20
699.2803727514
 30
0.0
 11
1142.6107245225
 21
614.7803727514
 31
0.0
  0
LINE
  5
339
330
1F
100
AcDbEntity
  8
0
  6
Continuous
 62
     7
370
    35
100
AcDbLine
 10
1141.6107245225
 20
614.7803727514
 30
0.0
 11
1140.6107245225
 21
614.7803727514
 31
0.0
  0
LINE
  5
33A
330
1F
100
AcDbEntity
  8
0
  6
Continuous
 62
     7
370
    35
100
AcDbLine
 10
1140.6107245225
 20
614.7803727514
 30
0.0
 11
1140.6107245225
 21
614.866159189
 31
0.0
  0
LINE
  5
33B
330
1F
100
AcDbEntity
  8
0
  6
Continuous
 62
     7
370
    35
100
AcDbLine
 10
1140.6107245225
 20
617.6945863137
 30
0.0
 11
1140.6107245225
 21
682.0483219438
 31
0.0
  0
LINE
  5
33C
330
1F
100
AcDbEntity
  8
0
  6
Continuous
 62
     7
370
    35
100
AcDbLine
 10
1140.6107245225
 20
699.2803727514
 30
0.0
 11
1141.6107245225
 21
699.2803727514
 31
0.0
  0
LINE
  5
33D
330
1F
100
AcDbEntity
  8
0
  6
Continuous
 62
     7
370
    35
100
AcDbLine
 10
559.6107245225
 20
614.7803727514
 30
0.0
 11
558.6107245225
 21
614.7803727514
 31
0.0
  0
LINE
  5
33E
330
1F
100
AcDbEntity
  8
0
  6
Continuous
 62
     7
370
    35
100
AcDbLine
 10
558.6107245225
 20
614.7803727514
 30
0.0
 11
558.6107245225
 21
699.2803727514
 31
0.0
  0
LINE
  5
33F
330
1F
100
AcDbEntity
  8
0
  6
Continuous
 62
     7
370
    35
100
AcDbLine
 10
558.6107245225
 20
699.2803727514
 30
0.0
 11
559.6107245225
 21
699.2803727514
 31
0.0
  0
LINE
  5
340
330
1F
100
AcDbEntity
  8
0
  6
Continuous
 62
     7
370
    35
100
AcDbLine
 10
560.6107245225
 20
614.7803727514
 30
0.0
 11
559.6107245225
 21
614.7803727514
 31
0.0
  0
LINE
  5
341
330
1F
100
AcDbEntity
  8
0
  6
Continuous
 62
     7
370
    35
100
AcDbLine
 10
560.6107245225
 20
682.0483219438
 30
0.0
 11
560.6107245225
 21
617.6945863137
 31
0.0
  0
LINE
  5
342
330
1F
100
AcDbEntity
  8
0
  6
Continuous
 62
     7
370
    35
100
AcDbLine
 10
560.6107245225
 20
614.866159189
 30
0.0
 11
560.6107245225
 21
614.7803727514
 31
0.0
  0
LINE
  5
343
330
1F
100
AcDbEntity
  8
0
  6
Continuous
 62
     7
370
    35
100
AcDbLine
 10
559.6107245225
 20
699.2803727514
 30
0.0
 11
560.6107245225
 21
699.2803727514
 31
0.0
  0
LINE
  5
344
330
1F
100
AcDbEntity
  8
0
  6
Continuous
 62
     7
370
    35
100
AcDbLine
 10
560.6107245225
 20
700.3053727514
 30
0.0
 11
560.6107245225
 21
699.3053727514
 31
0.0
  0
LINE
  5
345
330
1F
100
AcDbEntity
  8
0
  6
Continuous
 62
     7
370
    35
100
AcDbLine
 10
560.6107245225
 20
699.3053727514
 30
0.0
 11
538.1107245225
 21
699.3053727514
 31
0.0
  0
LINE
  5
346
330
1F
100
AcDbEntity
  8
0
  6
Continuous
 62
     7
370
    35
100
AcDbLine
 10
560.6107245225
 20
700.3053727514
 30
0.0
 11
538.1107245225
 21
700.3053727514
 31
0.0
  0
LINE
  5
347
330
1F
100
AcDbEntity
  8
0
  6
Continuous
 62
     7
370
    35
100
AcDbLine
 10
528.1107245225
 20
699.3053727514
 30
0.0
 11
528.1107245225
 21
700.3053727514
 31
0.0
  0
LINE
  5
348
330
1F
100
AcDbEntity
  8
0
  6
Continuous
 62
     7
370
    35
100
AcDbLine
 10
528.1107245225
 20
700.3053727514
 30
0.0
 11
538.1107245225
 21
700.3053727514
 31
0.0
  0
LINE
  5
349
330
1F
100
AcDbEntity
  8
0
  6
Continuous
 62
     7
370
    35
100
AcDbLine
 10
538.1107245225
 20
699.3053727514
 30
0.0
 11
528.1107245225
 21
699.3053727514
 31
0.0
  0
LINE
  5
34A
330
1F
100
AcDbEntity
  8
0
  6
Continuous
 62
     7
370
    35
100
AcDbLine
 10
528.1107245225
 20
699.3053727514
 30
0.0
 11
528.1107245225
 21
698.3053727514
 31
0.0
  0
LINE
  5
34B
330
1F
100
AcDbEntity
  8
0
  6
Continuous
 62
     7
370
    35
100
AcDbLine
 10
560.6107245225
 20
613.7803727514
 30
0.0
 11
560.6107245225
 21
584.3053727514
 31
0.0
  0
LINE
  5
34C
330
1F
100
AcDbEntity
  8
0
  6
Continuous
 62
     7
370
    35
100
AcDbLine
 10
560.6107245225
 20
584.3053727514
 30
0.0
 11
538.1107245225
 21
584.3053727514
 31
0.0
  0
ARC
  5
34D
330
1F
100
AcDbEntity
  8
0
  6
Continuous
 62
     7
370
    35
100
AcDbCircle
 10
538.1107245225
 20
594.3053727514
 30
0.0
 40
10.0
100
AcDbArc
 50
180.0
 51
270.0
  0
LINE
  5
34E
330
1F
100
AcDbEntity
  8
0
  6
Continuous
 62
     7
370
    35
100
AcDbLine
 10
528.1107245225
 20
594.3053727514
 30
0.0
 11
528.1107245225
 21
698.3053727514
 31
0.0
  0
LINE
  5
34F
330
1F
100
AcDbEntity
  8
0
  6
Continuous
 62
     7
370
    35
100
AcDbLine
 10
1173.1107245225
 20
700.3053727514
 30
0.0
 11
1173.1107245225
 21
699.3053727514
 31
0.0
  0
LINE
  5
350
330
1F
100
AcDbEntity
  8
0
  6
Continuous
 62
     7
370
    35
100
AcDbLine
 10
1173.1107245225
 20
699.3053727514
 30
0.0
 11
1163.1107245225
 21
699.3053727514
 31
0.0
  0
LINE
  5
351
330
1F
100
AcDbEntity
  8
0
  6
Continuous
 62
     7
370
    35
100
AcDbLine
 10
1163.1107245225
 20
700.3053727514
 30
0.0
 11
1173.1107245225
 21
700.3053727514
 31
0.0
  0
LINE
  5
352
330
1F
100
AcDbEntity
  8
0
  6
Continuous
 62
     7
370
    35
100
AcDbLine
 10
1140.6107245225
 20
700.3053727514
 30
0.0
 11
1140.6107245225
 21
699.3053727514
 31
0.0
  0
LINE
  5
353
330
1F
100
AcDbEntity
  8
0
  6
Continuous
 62
     7
370
    35
100
AcDbLine
 10
1140.6107245225
 20
700.3053727514
 30
0.0
 11
1163.1107245225
 21
700.3053727514
 31
0.0
  0
LINE
  5
354
330
1F
100
AcDbEntity
  8
0
  6
Continuous
 62
     7
370
    35
100
AcDbLine
 10
1140.6107245225
 20
699.3053727514
 30
0.0
 11
1163.1107245225
 21
699.3053727514
 31
0.0
  0
LINE
  5
355
330
1F
100
AcDbEntity
  8
0
  6
Continuous
 62
     7
370
    35
100
AcDbLine
 10
1173.1107245225
 20
698.3053727514
 30
0.0
 11
1173.1107245225
 21
699.3053727514
 31
0.0
  0
ARC
  5
356
330
1F
100
AcDbEntity
  8
0
  6
Continuous
 62
     7
370
    35
100
AcDbCircle
 10
1163.1107245225
 20
594.3053727514
 30
0.0
 40
10.0
100
AcDbArc
 50
270.0
 51
0.0
  0
LINE
  5
357
330
1F
100
AcDbEntity
  8
0
  6
Continuous
 62
     7
370
    35
100
AcDbLine
 10
1140.6107245225
 20
584.3053727514
 30
0.0
 11
1163.1107245225
 21
584.3053727514
 31
0.0
  0
LINE
  5
358
330
1F
100
AcDbEntity
  8
0
  6
Continuous
 62
     7
370
    35
100
AcDbLine
 10
1140.6107245225
 20
613.7803727514
 30
0.0
 11
1140.6107245225
 21
584.3053727514
 31
0.0
  0
LINE
  5
359
330
1F
100
AcDbEntity
  8
0
  6
Continuous
 62
     7
370
    35
100
AcDbLine
 10
1173.1107245225
 20
594.3053727514
 30
0.0
 11
1173.1107245225
 21
698.3053727514
 31
0.0
  0
LINE
  5
35A
330
1F
100
AcDbEntity
  8
0
  6
Continuous
 62
     8
370
    18
100
AcDbLine
 10
560.6107245225
 20
698.2803727514
 30
0.0
 11
1140.6107245225
 21
698.2803727514
 31
0.0
  0
LINE
  5
35B
330
1F
100
AcDbEntity
  8
0
  6
Continuous
 62
     8
370
    18
100
AcDbLine
 10
1140.6107245225
 20
683.7803727514
 30
0.0
 11
560.6107245225
 21
683.7803727514
 31
0.0
  0
LINE
  5
35C
330
1F
100
AcDbEntity
  8
0
  6
Continuous
 62
     8
370
    18
100
AcDbLine
 10
560.6107245225
 20
613.7803727514
 30
0.0
 11
1140.6107245225
 21
613.7803727514
 31
0.0
  0
LINE
  5
35D
330
1F
100
AcDbEntity
  8
0
  6
Continuous
 62
     8
370
    18
100
AcDbLine
 10
560.6107245225
 20
680.8370655389
 30
0.0
 11
1140.6107245225
 21
680.8370655389
 31
0.0
  0
LINE
  5
35E
330
1F
100
AcDbEntity
  8
0
  6
Continuous
 62
     8
370
    18
100
AcDbLine
 10
560.6107245225
 20
618.7236799638
 30
0.0
 11
1140.6107245225
 21
618.7236799638
 31
0.0
  0
SPLINE
  5
35F
330
1F
100
AcDbEntity
  8
0
  6
Continuous
 62
     8
370
    18
100
AcDbSpline
210
0.0
220
0.0
230
1.0
 70
     8
 71
     3
 72
    14
 73
    10
 74
     0
 42
0.000000001
 43
0.00000001
 40
0.0
 40
0.0
 40
0.0
 40
0.0
 40
0.2500000000000001
 40
0.2500000000000001
 40
0.5000000000000001
 40
0.5000000000000001
 40
0.7500000000000001
 40
0.7500000000000001
 40
1.0
 40
1.0
 40
1.0
 40
1.0
 10
767.6115816206088
 20
649.8370655389273
 30
0.0
 10
767.6368232067521
 20
653.1762290477425
 30
0.0
 10
768.2246991499399
 20
656.5104511174834
 30
0.0
 10
770.4612460510356
 20
662.8033406178873
 30
0.0
 10
772.1094559883379
 20
665.7607108918814
 30
0.0
 10
776.284985882591
 20
670.9729609249571
 30
0.0
 10
778.8114451353373
 20
673.2267662801593
 30
0.0
 10
784.464669686919
 20
676.7825576793405
 30
0.0
 10
787.5902696835623
 20
678.0838107661419
 30
0.0
 10
790.8434615505678
 20
678.8370655389272
 30
0.0
  0
LINE
  5
360
330
1F
100
AcDbEntity
  8
0
  6
Continuous
 62
     8
370
    18
100
AcDbLine
 10
560.6107245225
 20
649.8370655389
 30
0.0
 11
767.6115816206
 21
649.8370655389
 31
0.0
  0
LINE
  5
361
330
1F
100
AcDbEntity
  8
0
  6
Continuous
 62
     8
370
    18
100
AcDbLine
 10
933.6098674243
 20
649.8370655389
 30
0.0
 11
1140.6107245225
 21
649.8370655389
 31
0.0
  0
SPLINE
  5
362
330
1F
100
AcDbEntity
  8
0
  6
Continuous
 62
     8
370
    18
100
AcDbSpline
210
0.0
220
0.0
230
1.0
 70
     8
 71
     3
 72
    14
 73
    10
 74
     0
 42
0.000000001
 43
0.00000001
 40
0.0
 40
0.0
 40
0.0
 40
0.0
 40
0.25
 40
0.25
 40
0.5
 40
0.5
 40
0.75
 40
0.75
 40
1.0
 40
1.0
 40
1.0
 40
1.0
 10
910.3779874943432
 20
678.8370655389273
 30
0.0
 10
913.6311793613487
 20
678.0838107661419
 30
0.0
 10
916.756779357992
 20
676.7825576793405
 30
0.0
 10
922.4100039095736
 20
673.2267662801593
 30
0.0
 10
924.93646316232
 20
670.9729609249571
 30
0.0
 10
929.111993056573
 20
665.7607108918814
 30
0.0
 10
930.7602029938754
 20
662.8033406178873
 30
0.0
 10
932.9967498949711
 20
656.5104511174833
 30
0.0
 10
933.5846258381589
 20
653.1762290477424
 30
0.0
 10
933.609867424302
 20
649.8370655389272
 30
0.0
  0
LINE
  5
363
330
1F
100
AcDbEntity
  8
0
  6
Continuous
 62
     8
370
    18
100
AcDbLine
 10
560.6107245225
 20
649.7236799638
 30
0.0
 11
767.6115816206
 21
649.7236799638
 31
0.0
  0
SPLINE
  5
364
330
1F
100
AcDbEntity
  8
0
  6
Continuous
 62
     8
370
    18
100
AcDbSpline
210
0.0
220
0.0
230
1.0
 70
     8
 71
     3
 72
    14
 73
    10
 74
     0
 42
0.000000001
 43
0.00000001
 40
0.0
 40
0.0
 40
0.0
 40
0.0
 40
0.2500000000000002
 40
0.2500000000000002
 40
0.5000000000000003
 40
0.5000000000000003
 40
0.7500000000000002
 40
0.7500000000000002
 40
1.0
 40
1.0
 40
1.0
 40
1.0
 10
790.8434615505676
 20
620.7236799638005
 30
0.0
 10
787.5902696835622
 20
621.4769347365857
 30
0.0
 10
784.464669686919
 20
622.7781878233872
 30
0.0
 10
778.8114451353373
 20
626.3339792225684
 30
0.0
 10
776.2849858825908
 20
628.5877845777705
 30
0.0
 10
772.1094559883379
 20
633.8000346108462
 30
0.0
 10
770.4612460510356
 20
636.7574048848403
 30
0.0
 10
768.2246991499397
 20
643.0502943852442
 30
0.0
 10
767.6368232067521
 20
646.3845164549851
 30
0.0
 10
767.6115816206088
 20
649.7236799638004
 30
0.0
  0
SPLINE
  5
365
330
1F
100
AcDbEntity
  8
0
  6
Continuous
 62
     8
370
    18
100
AcDbSpline
210
0.0
220
0.0
230
1.0
 70
     8
 71
     3
 72
    14
 73
    10
 74
     0
 42
0.000000001
 43
0.00000001
 40
0.0
 40
0.0
 40
0.0
 40
0.0
 40
0.25
 40
0.25
 40
0.5
 40
0.5
 40
0.75
 40
0.75
 40
1.0
 40
1.0
 40
1.0
 40
1.0
 10
933.609867424302
 20
649.7236799638004
 30
0.0
 10
933.5846258381589
 20
646.3845164549851
 30
0.0
 10
932.9967498949711
 20
643.0502943852443
 30
0.0
 10
930.7602029938754
 20
636.7574048848403
 30
0.0
 10
929.111993056573
 20
633.8000346108462
 30
0.0
 10
924.9364631623201
 20
628.5877845777705
 30
0.0
 10
922.4100039095737
 20
626.3339792225684
 30
0.0
 10
916.756779357992
 20
622.7781878233872
 30
0.0
 10
913.6311793613487
 20
621.4769347365857
 30
0.0
 10
910.3779874943434
 20
620.7236799638005
 30
0.0
  0
LINE
  5
366
330
1F
100
AcDbEntity
  8
0
  6
Continuous
 62
     8
370
    18
100
AcDbLine
 10
933.6098674243
 20
649.7236799638
 30
0.0
 11
1140.6107245225
 21
649.7236799638
 31
0.0
  0
LINE
  5
367
330
1F
100
AcDbEntity
  8
0
  6
Continuous
 62
     8
370
    18
100
AcDbLine
 10
903.6107245225
 20
679.0353524493
 30
0.0
 11
903.6107245225
 21
679.0303727514
 31
0.0
  0
ARC
  5
368
330
1F
100
AcDbEntity
  8
0
  6
Continuous
 62
     8
370
    18
100
AcDbCircle
 10
857.3610139226
 20
690.4118005053
 30
0.0
 40
54.2657716820375
100
AcDbArc
 50
344.6911781266
 51
347.6843554441
  0
LINE
  5
369
330
1F
100
AcDbEntity
  8
0
  6
Continuous
 62
     8
370
    18
100
AcDbLine
 10
903.6107245225
 20
679.0303727514
 30
0.0
 11
903.6107245225
 21
676.7803727514
 31
0.0
  0
LINE
  5
36A
330
1F
100
AcDbEntity
  8
0
  6
Continuous
 62
     8
370
    18
100
AcDbLine
 10
797.6107245225
 20
679.0353524493
 30
0.0
 11
797.6107245225
 21
679.0303727514
 31
0.0
  0
LINE
  5
36B
330
1F
100
AcDbEntity
  8
0
  6
Continuous
 62
     8
370
    18
100
AcDbLine
 10
797.6107245225
 20
679.0303727514
 30
0.0
 11
797.6107245225
 21
676.7803727514
 31
0.0
  0
ARC
  5
36C
330
1F
100
AcDbEntity
  8
0
  6
Continuous
 62
     8
370
    18
100
AcDbCircle
 10
843.8604351222
 20
690.4118005053
 30
0.0
 40
54.26577168195826
100
AcDbArc
 50
192.3156445558
 51
195.3088218734
  0
ARC
  5
36D
330
1F
100
AcDbEntity
  8
0
  6
Continuous
 62
     8
370
    18
100
AcDbCircle
 10
843.8604351229
 20
609.1489449973
 30
0.0
 40
54.26577168265401
100
AcDbArc
 50
164.6911781266
 51
167.6843554441
  0
LINE
  5
36E
330
1F
100
AcDbEntity
  8
0
  6
Continuous
 62
     8
370
    18
100
AcDbLine
 10
797.6107245225
 20
622.7803727514
 30
0.0
 11
797.6107245225
 21
620.5303727514
 31
0.0
  0
LINE
  5
36F
330
1F
100
AcDbEntity
  8
0
  6
Continuous
 62
     8
370
    18
100
AcDbLine
 10
903.6107245225
 20
622.7803727514
 30
0.0
 11
903.6107245225
 21
620.5303727514
 31
0.0
  0
ARC
  5
370
330
1F
100
AcDbEntity
  8
0
  6
Continuous
 62
     8
370
    18
100
AcDbCircle
 10
857.3610139216
 20
609.1489449972
 30
0.0
 40
54.26577168305669
100
AcDbArc
 50
12.3156445559
 51
15.3088218734
  0
LINE
  5
371
330
1F
100
AcDbEntity
  8
0
  6
Continuous
 62
     8
370
    18
100
AcDbLine
 10
797.6107245225
 20
620.5253930534
 30
0.0
 11
797.6107245225
 21
620.5303727514
 31
0.0
  0
LINE
  5
372
330
1F
100
AcDbEntity
  8
0
  6
Continuous
 62
     8
370
    18
100
AcDbLine
 10
903.6107245225
 20
620.5253930534
 30
0.0
 11
903.6107245225
 21
620.5303727514
 31
0.0
  0
ARC
  5
373
330
1F
100
AcDbEntity
  8
0
  6
Continuous
 62
     8
370
    18
100
AcDbCircle
 10
932.7780302899
 20
664.2349376635
 30
0.0
 40
14.42188180276891
100
AcDbArc
 50
261.3675974434
 51
273.306588142
  0
ARC
  5
374
330
1F
100
AcDbEntity
  8
0
  6
Continuous
 62
     8
370
    18
100
AcDbCircle
 10
768.443418755
 20
664.2349376635
 30
0.0
 40
14.42188180276818
100
AcDbArc
 50
266.693411858
 51
278.6324025566
  0
ARC
  5
375
330
1F
100
AcDbEntity
  8
0
  6
Continuous
 62
     8
370
    18
100
AcDbCircle
 10
768.443418755
 20
635.3258078393
 30
0.0
 40
14.42188180275372
100
AcDbArc
 50
81.3675974434
 51
93.306588142
  0
ARC
  5
376
330
1F
100
AcDbEntity
  8
0
  6
Continuous
 62
     8
370
    18
100
AcDbCircle
 10
932.7780302899
 20
635.3258078393
 30
0.0
 40
14.42188180275329
100
AcDbArc
 50
86.693411858
 51
98.6324025566
  0
SPLINE
  5
377
330
1F
100
AcDbEntity
  8
0
  6
Continuous
 62
     8
370
    18
100
AcDbSpline
210
0.0
220
0.0
230
1.0
 70
     8
 71
     3
 72
     8
 73
     4
 74
     0
 42
0.000000001
 43
0.00000001
 40
0.0
 40
0.0
 40
0.0
 40
0.0
 40
1.0
 40
1.0
 40
1.0
 40
1.0
 10
933.609867424302
 20
649.8370655389272
 30
0.0
 10
933.6110102381654
 20
649.7992703472183
 30
0.0
 10
933.6110102381654
 20
649.7614751555093
 30
0.0
 10
933.609867424302
 20
649.7236799638004
 30
0.0
  0
SPLINE
  5
378
330
1F
100
AcDbEntity
  8
0
  6
Continuous
 62
     8
370
    18
100
AcDbSpline
210
0.0
220
0.0
230
1.0
 70
     8
 71
     3
 72
     8
 73
     4
 74
     0
 42
0.000000001
 43
0.00000001
 40
0.0
 40
0.0
 40
0.0
 40
0.0
 40
1.0
 40
1.0
 40
1.0
 40
1.0
 10
767.6115816206088
 20
649.7236799638004
 30
0.0
 10
767.6104388067457
 20
649.7614751555093
 30
0.0
 10
767.6104388067457
 20
649.7992703472183
 30
0.0
 10
767.6115816206088
 20
649.8370655389272
 30
0.0
  0
SPLINE
  5
379
330
1F
100
AcDbEntity
  8
0
  6
Continuous
 62
     8
370
    18
100
AcDbSpline
210
0.0
220
0.0
230
1.0
 70
     8
 71
     3
 72
     9
 73
     5
 74
     0
 42
0.000000001
 43
0.00000001
 40
0.0
 40
0.0
 40
0.0
 40
0.0
 40
0.1546895589938838
 40
1.0
 40
1.0
 40
1.0
 40
1.0
 10
797.7274557051157
 20
668.5119462053482
 30
0.0
 10
797.9705081616936
 20
668.4392716703461
 30
0.0
 10
799.54173545175
 20
667.9694627480443
 30
0.0
 10
800.9658533605761
 20
667.1531847189947
 30
0.0
 10
802.1696750981305
 20
666.4631763782752
 30
0.0
  0
ARC
  5
37A
330
1F
100
AcDbEntity
  8
0
  6
Continuous
 62
     8
370
    18
100
AcDbCircle
 10
803.626091775
 20
665.0168463931
 30
0.0
 40
2.052564240815955
100
AcDbArc
 50
135.1990950652
 51
168.3527908007
  0
ARC
  5
37B
330
1F
100
AcDbEntity
  8
0
  6
Continuous
 62
     8
370
    18
100
AcDbCircle
 10
897.5953572699
 20
665.0168463931
 30
0.0
 40
2.052564240816825
100
AcDbArc
 50
11.6472091993
 51
44.8009049348
  0
SPLINE
  5
37C
330
1F
100
AcDbEntity
  8
0
  6
Continuous
 62
     8
370
    18
100
AcDbSpline
210
0.0
220
0.0
230
1.0
 70
     8
 71
     3
 72
     9
 73
     5
 74
     0
 42
0.000000001
 43
0.00000001
 40
0.0
 40
0.0
 40
0.0
 40
0.0
 40
0.1546895589938839
 40
1.0
 40
1.0
 40
1.0
 40
1.0
 10
903.4939933397948
 20
668.5119462053482
 30
0.0
 10
903.2509408832169
 20
668.4392716703461
 30
0.0
 10
901.6797135931605
 20
667.9694627480443
 30
0.0
 10
900.2555956843345
 20
667.1531847189947
 30
0.0
 10
899.05177394678
 20
666.4631763782752
 30
0.0
  0
SPLINE
  5
37D
330
1F
100
AcDbEntity
  8
0
  6
Continuous
 62
     8
370
    18
100
AcDbSpline
210
0.0
220
0.0
230
1.0
 70
     8
 71
     3
 72
     9
 73
     5
 74
     0
 42
0.000000001
 43
0.00000001
 40
0.0
 40
0.0
 40
0.0
 40
0.0
 40
0.1546895589938838
 40
0.9999999999999999
 40
0.9999999999999999
 40
0.9999999999999999
 40
0.9999999999999999
 10
903.4939933397948
 20
631.0487992973791
 30
0.0
 10
903.2509408832168
 20
631.1214738323813
 30
0.0
 10
901.6797135931605
 20
631.5912827546831
 30
0.0
 10
900.2555956843345
 20
632.4075607837326
 30
0.0
 10
899.05177394678
 20
633.0975691244521
 30
0.0
  0
ARC
  5
37E
330
1F
100
AcDbEntity
  8
0
  6
Continuous
 62
     8
370
    18
100
AcDbCircle
 10
897.5953572699
 20
634.5438991096
 30
0.0
 40
2.052564240817229
100
AcDbArc
 50
315.1990950652
 51
348.3527908007
  0
ARC
  5
37F
330
1F
100
AcDbEntity
  8
0
  6
Continuous
 62
     8
370
    18
100
AcDbCircle
 10
803.626091775
 20
634.5438991096
 30
0.0
 40
2.052564240816424
100
AcDbArc
 50
191.6472091993
 51
224.8009049348
  0
SPLINE
  5
380
330
1F
100
AcDbEntity
  8
0
  6
Continuous
 62
     8
370
    18
100
AcDbSpline
210
0.0
220
0.0
230
1.0
 70
     8
 71
     3
 72
     9
 73
     5
 74
     0
 42
0.000000001
 43
0.00000001
 40
0.0
 40
0.0
 40
0.0
 40
0.0
 40
0.1546895589938838
 40
1.0
 40
1.0
 40
1.0
 40
1.0
 10
797.7274557051157
 20
631.0487992973791
 30
0.0
 10
797.9705081616936
 20
631.1214738323814
 30
0.0
 10
799.54173545175
 20
631.5912827546831
 30
0.0
 10
800.9658533605761
 20
632.4075607837326
 30
0.0
 10
802.1696750981305
 20
633.0975691244521
 30
0.0
  0
ARC
  5
381
330
1F
100
AcDbEntity
  8
0
  6
Continuous
 62
     8
370
    18
100
AcDbCircle
 10
804.6107245225
 20
649.7803727514
 30
0.0
 40
20.00000000000002
100
AcDbArc
 50
90.0
 51
167.5224163016
  0
LINE
  5
382
330
1F
100
AcDbEntity
  8
0
  6
Continuous
 62
     8
370
    18
100
AcDbLine
 10
804.6107245225
 20
662.4930235383
 30
0.0
 11
804.6107245225
 21
669.7803727514
 31
0.0
  0
LINE
  5
383
330
1F
100
AcDbEntity
  8
0
  6
Continuous
 62
     8
370
    18
100
AcDbLine
 10
804.6107245225
 20
637.0677219645
 30
0.0
 11
804.6107245225
 21
629.7803727514
 31
0.0
  0
ARC
  5
384
330
1F
100
AcDbEntity
  8
0
  6
Continuous
 62
     8
370
    18
100
AcDbCircle
 10
804.6107245225
 20
649.7803727514
 30
0.0
 40
20.00000000000011
100
AcDbArc
 50
192.4775836984
 51
270.0
  0
SPLINE
  5
385
330
1F
100
AcDbEntity
  8
0
  6
Continuous
 62
     8
370
    18
100
AcDbSpline
210
0.0
220
0.0
230
1.0
 70
     8
 71
     3
 72
    14
 73
    10
 74
     0
 42
0.000000001
 43
0.00000001
 40
0.0
 40
0.0
 40
0.0
 40
0.0
 40
0.1114289230413287
 40
0.4958785649680217
 40
0.7046555305618425
 40
0.830176037425758
 40
0.9121018798659113
 40
0.9942797082137521
 40
1.0
 40
1.0
 40
1.0
 40
1.0
 10
802.1696750981305
 20
633.0975691244521
 30
0.0
 10
802.2890661437664
 20
633.1799014897014
 30
0.0
 10
802.8203775731873
 20
633.5462951872786
 30
0.0
 10
803.4946690965419
 20
634.1790663379976
 30
0.0
 10
803.9525328843039
 20
634.9700508526979
 30
0.0
 10
804.0369906346374
 20
635.4802455865606
 30
0.0
 10
803.954526341785
 20
635.8245741922249
 30
0.0
 10
803.8348193981631
 20
636.0022739129577
 30
0.0
 10
803.7541081249566
 20
636.0776564823806
 30
0.0
 10
803.7488555435308
 20
636.08256227891
 30
0.0
  0
SPLINE
  5
386
330
1F
100
AcDbEntity
  8
0
  6
Continuous
 62
     8
370
    18
100
AcDbSpline
210
0.0
220
0.0
230
1.0
 70
     8
 71
     3
 72
    14
 73
    10
 74
     0
 42
0.000000001
 43
0.00000001
 40
0.0
 40
0.0
 40
0.0
 40
0.0
 40
0.111428923041332
 40
0.4958785649679976
 40
0.7046555305618276
 40
0.8301760374257514
 40
0.9121018798659077
 40
0.9942797082137481
 40
1.0
 40
1.0
 40
1.0
 40
1.0
 10
802.1696750981305
 20
666.4631763782752
 30
0.0
 10
802.2890661437664
 20
666.3808440130261
 30
0.0
 10
802.8203775731873
 20
666.0144503154487
 30
0.0
 10
803.4946690965419
 20
665.38167916473
 30
0.0
 10
803.9525328843039
 20
664.5906946500297
 30
0.0
 10
804.0369906346374
 20
664.080499916167
 30
0.0
 10
803.9545263417853
 20
663.7361713105028
 30
0.0
 10
803.8348193981628
 20
663.5584715897701
 30
0.0
 10
803.7541081249566
 20
663.483089020347
 30
0.0
 10
803.7488555435308
 20
663.4781832238176
 30
0.0
  0
SPLINE
  5
387
330
1F
100
AcDbEntity
  8
0
  6
Continuous
 62
     8
370
    18
100
AcDbSpline
210
0.0
220
0.0
230
1.0
 70
     8
 71
     3
 72
    14
 73
    10
 74
     0
 42
0.000000001
 43
0.00000001
 40
0.0
 40
0.0
 40
0.0
 40
0.0
 40
0.1114289230413326
 40
0.495878564967995
 40
0.7046555305618263
 40
0.8301760374257537
 40
0.9121018798659094
 40
0.9942797082137461
 40
1.0
 40
1.0
 40
1.0
 40
1.0
 10
899.05177394678
 20
666.4631763782752
 30
0.0
 10
898.9323829011441
 20
666.3808440130261
 30
0.0
 10
898.4010714717232
 20
666.0144503154487
 30
0.0
 10
897.7267799483686
 20
665.38167916473
 30
0.0
 10
897.2689161606066
 20
664.5906946500297
 30
0.0
 10
897.1844584102731
 20
664.080499916167
 30
0.0
 10
897.2669227031254
 20
663.7361713105028
 30
0.0
 10
897.3866296467477
 20
663.55847158977
 30
0.0
 10
897.4673409199538
 20
663.483089020347
 30
0.0
 10
897.4725935013797
 20
663.4781832238176
 30
0.0
  0
SPLINE
  5
388
330
1F
100
AcDbEntity
  8
0
  6
Continuous
 62
     8
370
    18
100
AcDbSpline
210
0.0
220
0.0
230
1.0
 70
     8
 71
     3
 72
    14
 73
    10
 74
     0
 42
0.000000001
 43
0.00000001
 40
0.0
 40
0.0
 40
0.0
 40
0.0
 40
0.1114289230413294
 40
0.4958785649680201
 40
0.7046555305618423
 40
0.8301760374257613
 40
0.9121018798659148
 40
0.994279708213752
 40
1.0
 40
1.0
 40
1.0
 40
1.0
 10
899.05177394678
 20
633.0975691244521
 30
0.0
 10
898.9323829011441
 20
633.1799014897014
 30
0.0
 10
898.4010714717232
 20
633.5462951872786
 30
0.0
 10
897.7267799483686
 20
634.1790663379976
 30
0.0
 10
897.2689161606066
 20
634.9700508526979
 30
0.0
 10
897.1844584102731
 20
635.4802455865606
 30
0.0
 10
897.2669227031254
 20
635.8245741922249
 30
0.0
 10
897.3866296467477
 20
636.0022739129575
 30
0.0
 10
897.4673409199538
 20
636.0776564823806
 30
0.0
 10
897.4725935013797
 20
636.08256227891
 30
0.0
  0
ARC
  5
389
330
1F
100
AcDbEntity
  8
0
  6
Continuous
 62
     8
370
    18
100
AcDbCircle
 10
896.6107245225
 20
649.7803727514
 30
0.0
 40
20.0
100
AcDbArc
 50
270.0
 51
347.5224163016
  0
LINE
  5
38A
330
1F
100
AcDbEntity
  8
0
  6
Continuous
 62
     8
370
    18
100
AcDbLine
 10
896.6107245225
 20
637.0677219645
 30
0.0
 11
896.6107245225
 21
629.7803727514
 31
0.0
  0
LINE
  5
38B
330
1F
100
AcDbEntity
  8
0
  6
Continuous
 62
     8
370
    18
100
AcDbLine
 10
896.6107245225
 20
662.4930235383
 30
0.0
 11
896.6107245225
 21
669.7803727514
 31
0.0
  0
ARC
  5
38C
330
1F
100
AcDbEntity
  8
0
  6
Continuous
 62
     8
370
    18
100
AcDbCircle
 10
896.6107245225
 20
649.7803727514
 30
0.0
 40
20.0
100
AcDbArc
 50
12.4775836984
 51
90.0
  0
SPLINE
  5
38D
330
1F
100
AcDbEntity
  8
0
  6
Continuous
 62
     8
370
    18
100
AcDbSpline
210
0.0
220
0.0
230
1.0
 70
     8
 71
     3
 72
    18
 73
    14
 74
     0
 42
0.000000001
 43
0.00000001
 40
0.0
 40
0.0
 40
0.0
 40
0.0
 40
0.0000017576874324
 40
0.0364929107765217
 40
0.1834197338049771
 40
0.2877695105078334
 40
0.3921441025453802
 40
0.4993591877198501
 40
0.6063886859551814
 40
0.7134284383809879
 40
0.8178270444226947
 40
0.9079734932070053
 40
1.0
 40
1.0
 40
1.0
 40
1.0
 10
903.6107245224554
 20
671.5260851433533
 30
0.0
 10
903.6107445089493
 20
671.5260851431451
 30
0.0
 10
904.0257018742767
 20
671.5260808216279
 30
0.0
 10
906.1109106979512
 20
671.4636964191707
 30
0.0
 10
909.3678596455468
 20
670.8945311108147
 30
0.0
 10
913.1551799975663
 20
669.429590779943
 30
0.0
 10
916.2544170381437
 20
667.5812952569321
 30
0.0
 10
919.0474149423508
 20
665.247003196234
 30
0.0
 10
921.4109839934723
 20
662.4381104139958
 30
0.0
 10
923.2662208893587
 20
659.3079582093682
 30
0.0
 10
924.5021518013399
 20
656.0951679892037
 30
0.0
 10
925.2265352044582
 20
652.901244948429
 30
0.0
 10
925.3109660582561
 20
650.8277962727689
 30
0.0
 10
925.3536171560327
 20
649.7803727513638
 30
0.0
  0
LINE
  5
38E
330
1F
100
AcDbEntity
  8
0
  6
Continuous
 62
     8
370
    18
100
AcDbLine
 10
903.6107245225
 20
671.5260851434
 30
0.0
 11
903.6107249195
 21
671.5303727514
 31
0.0
  0
LINE
  5
38F
330
1F
100
AcDbEntity
  8
0
  6
Continuous
 62
     8
370
    18
100
AcDbLine
 10
925.353617156
 20
649.7803727514
 30
0.0
 11
925.349177213
 21
649.7803727514
 31
0.0
  0
LINE
  5
390
330
1F
100
AcDbEntity
  8
0
  6
Continuous
 62
     8
370
    18
100
AcDbLine
 10
903.6107245225
 20
671.5216452189
 30
0.0
 11
903.6107245225
 21
671.5260851434
 31
0.0
  0
SPLINE
  5
391
330
1F
100
AcDbEntity
  8
0
  6
Continuous
 62
     8
370
    18
100
AcDbSpline
210
0.0
220
0.0
230
1.0
 70
     8
 71
     3
 72
    18
 73
    14
 74
     0
 42
0.000000001
 43
0.00000001
 40
0.0
 40
0.0
 40
0.0
 40
0.0
 40
0.0000017576874324
 40
0.0364929107765216
 40
0.1834197338049767
 40
0.2877695105078328
 40
0.3921441025453815
 40
0.4993591877198513
 40
0.6063886859551824
 40
0.7134284383809886
 40
0.8178270444226953
 40
0.9079734932070055
 40
1.0
 40
1.0
 40
1.0
 40
1.0
 10
797.6107245224553
 20
671.5260851433533
 30
0.0
 10
797.6107045359611
 20
671.5260851431451
 30
0.0
 10
797.1957471706822
 20
671.52608082158
 30
0.0
 10
795.110538346864
 20
671.4636964192653
 30
0.0
 10
791.8535893993898
 20
670.8945311107889
 30
0.0
 10
788.0662690473381
 20
669.4295907799491
 30
0.0
 10
784.9670320067685
 20
667.5812952569304
 30
0.0
 10
782.1740341025592
 20
665.2470031962345
 30
0.0
 10
779.8104650514383
 20
662.4381104139957
 30
0.0
 10
777.9552281555517
 20
659.3079582093683
 30
0.0
 10
776.7192972435705
 20
656.0951679892037
 30
0.0
 10
775.9949138404523
 20
652.901244948429
 30
0.0
 10
775.9104829866543
 20
650.8277962727689
 30
0.0
 10
775.8678318888778
 20
649.7803727513639
 30
0.0
  0
LINE
  5
392
330
1F
100
AcDbEntity
  8
0
  6
Continuous
 62
     8
370
    18
100
AcDbLine
 10
797.6107245225
 20
671.5260851434
 30
0.0
 11
797.6107241254
 21
671.5303727514
 31
0.0
  0
LINE
  5
393
330
1F
100
AcDbEntity
  8
0
  6
Continuous
 62
     8
370
    18
100
AcDbLine
 10
775.8678318889
 20
649.7803727514
 30
0.0
 11
775.8722718319
 21
649.7803727514
 31
0.0
  0
LINE
  5
394
330
1F
100
AcDbEntity
  8
0
  6
Continuous
 62
     8
370
    18
100
AcDbLine
 10
797.6107245225
 20
671.5216452189
 30
0.0
 11
797.6107245225
 21
671.5260851434
 31
0.0
  0
SPLINE
  5
395
330
1F
100
AcDbEntity
  8
0
  6
Continuous
 62
     8
370
    18
100
AcDbSpline
210
0.0
220
0.0
230
1.0
 70
     8
 71
     3
 72
    18
 73
    14
 74
     0
 42
0.000000001
 43
0.00000001
 40
0.0
 40
0.0
 40
0.0
 40
0.0
 40
0.0000017576874324
 40
0.0364929107765214
 40
0.1834197338049758
 40
0.2877695105078313
 40
0.3921441025453794
 40
0.4993591877198534
 40
0.6063886859551839
 40
0.7134284383809897
 40
0.8178270444226954
 40
0.9079734932070064
 40
1.0
 40
1.0
 40
1.0
 40
1.0
 10
797.6107245224553
 20
628.0346603593741
 30
0.0
 10
797.6107045359612
 20
628.0346603595823
 30
0.0
 10
797.1957471706822
 20
628.0346646811237
 30
0.0
 10
795.110538346864
 20
628.0970490835089
 30
0.0
 10
791.8535893993898
 20
628.6662143919257
 30
0.0
 10
788.0662690473382
 20
630.1311547227812
 30
0.0
 10
784.9670320067684
 20
631.9794502457961
 30
0.0
 10
782.1740341025593
 20
634.3137423064933
 30
0.0
 10
779.8104650514383
 20
637.1226350887318
 30
0.0
 10
777.9552281555518
 20
640.2527872933593
 30
0.0
 10
776.7192972435705
 20
643.465577513524
 30
0.0
 10
775.9949138404523
 20
646.6595005542986
 30
0.0
 10
775.9104829866543
 20
648.7329492299588
 30
0.0
 10
775.8678318888778
 20
649.7803727513639
 30
0.0
  0
LINE
  5
396
330
1F
100
AcDbEntity
  8
0
  6
Continuous
 62
     8
370
    18
100
AcDbLine
 10
797.6107245225
 20
628.0346603594
 30
0.0
 11
797.6107241254
 21
628.0303727514
 31
0.0
  0
LINE
  5
397
330
1F
100
AcDbEntity
  8
0
  6
Continuous
 62
     8
370
    18
100
AcDbLine
 10
797.6107245225
 20
628.0391002838
 30
0.0
 11
797.6107245225
 21
628.0346603594
 31
0.0
  0
SPLINE
  5
398
330
1F
100
AcDbEntity
  8
0
  6
Continuous
 62
     8
370
    18
100
AcDbSpline
210
0.0
220
0.0
230
1.0
 70
     8
 71
     3
 72
    18
 73
    14
 74
     0
 42
0.000000001
 43
0.00000001
 40
0.0
 40
0.0
 40
0.0
 40
0.0
 40
0.0000017576874324
 40
0.0364929107765215
 40
0.1834197338049759
 40
0.2877695105078286
 40
0.3921441025453793
 40
0.4993591877198531
 40
0.6063886859551837
 40
0.7134284383809895
 40
0.8178270444226953
 40
0.907973493207006
 40
1.0
 40
1.0
 40
1.0
 40
1.0
 10
903.6107245224551
 20
628.0346603593741
 30
0.0
 10
903.6107445089493
 20
628.0346603595823
 30
0.0
 10
904.0257018741806
 20
628.0346646811477
 30
0.0
 10
906.1109106981401
 20
628.0970490834617
 30
0.0
 10
909.3678596454952
 20
628.6662143919388
 30
0.0
 10
913.1551799975783
 20
630.131154722778
 30
0.0
 10
916.2544170381406
 20
631.9794502457969
 30
0.0
 10
919.0474149423517
 20
634.313742306493
 30
0.0
 10
921.410983993472
 20
637.122635088732
 30
0.0
 10
923.2662208893587
 20
640.2527872933593
 30
0.0
 10
924.5021518013399
 20
643.465577513524
 30
0.0
 10
925.2265352044582
 20
646.6595005542986
 30
0.0
 10
925.3109660582561
 20
648.7329492299588
 30
0.0
 10
925.3536171560327
 20
649.7803727513638
 30
0.0
  0
LINE
  5
399
330
1F
100
AcDbEntity
  8
0
  6
Continuous
 62
     8
370
    18
100
AcDbLine
 10
903.6107245225
 20
628.0391002838
 30
0.0
 11
903.6107245225
 21
628.0346603594
 31
0.0
  0
LINE
  5
39A
330
1F
100
AcDbEntity
  8
0
  6
Continuous
 62
     8
370
    18
100
AcDbLine
 10
903.6107245225
 20
628.0346603594
 30
0.0
 11
903.6107249195
 21
628.0303727514
 31
0.0
  0
LINE
  5
39B
330
1F
100
AcDbEntity
  8
0
  6
Continuous
 62
     8
370
    18
100
AcDbLine
 10
896.6107245225
 20
629.7803727514
 30
0.0
 11
804.6107245225
 21
629.7803727514
 31
0.0
  0
LINE
  5
39C
330
1F
100
AcDbEntity
  8
0
  6
Continuous
 62
     8
370
    18
100
AcDbLine
 10
896.6107245225
 20
669.7803727514
 30
0.0
 11
804.6107245225
 21
669.7803727514
 31
0.0
  0
LINE
  5
39D
330
1F
100
AcDbEntity
  8
0
  6
Continuous
 62
     8
370
    18
100
AcDbLine
 10
903.6107245225
 20
671.5260851434
 30
0.0
 11
797.6107245225
 21
671.5260851434
 31
0.0
  0
LINE
  5
39E
330
1F
100
AcDbEntity
  8
0
  6
Continuous
 62
     8
370
    18
100
AcDbLine
 10
903.6107245225
 20
628.0346603594
 30
0.0
 11
797.6107245225
 21
628.0346603594
 31
0.0
  0
LINE
  5
39F
330
1F
100
AcDbEntity
  8
0
  6
Continuous
 62
     8
370
    18
100
AcDbLine
 10
903.6107245225
 20
671.5303727514
 30
0.0
 11
903.6107245225
 21
676.0303727514
 31
0.0
  0
LINE
  5
3A0
330
1F
100
AcDbEntity
  8
0
  6
Continuous
 62
     8
370
    18
100
AcDbLine
 10
797.6107245225
 20
671.5303727514
 30
0.0
 11
797.6107245225
 21
676.0303727514
 31
0.0
  0
LINE
  5
3A1
330
1F
100
AcDbEntity
  8
0
  6
Continuous
 62
     8
370
    18
100
AcDbLine
 10
903.6107245225
 20
676.0303727514
 30
0.0
 11
797.6107245225
 21
676.0303727514
 31
0.0
  0
LINE
  5
3A2
330
1F
100
AcDbEntity
  8
0
  6
Continuous
 62
     8
370
    18
100
AcDbLine
 10
903.6107245225
 20
676.0303727514
 30
0.0
 11
903.6107245225
 21
676.7803727514
 31
0.0
  0
LINE
  5
3A3
330
1F
100
AcDbEntity
  8
0
  6
Continuous
 62
     8
370
    18
100
AcDbLine
 10
797.6107245225
 20
676.0303727514
 30
0.0
 11
797.6107245225
 21
676.7803727514
 31
0.0
  0
LINE
  5
3A4
330
1F
100
AcDbEntity
  8
0
  6
Continuous
 62
     8
370
    18
100
AcDbLine
 10
903.6107245225
 20
628.0303727514
 30
0.0
 11
903.6107245225
 21
623.5303727514
 31
0.0
  0
ARC
  5
3A5
330
1F
100
AcDbEntity
  8
0
  6
Continuous
 62
     8
370
    18
100
AcDbCircle
 10
903.6107245225
 20
649.7803727514
 30
0.0
 40
26.25000000000011
100
AcDbArc
 50
270.0
 51
90.0
  0
LINE
  5
3A6
330
1F
100
AcDbEntity
  8
0
  6
Continuous
 62
     8
370
    18
100
AcDbLine
 10
903.6107245225
 20
623.5303727514
 30
0.0
 11
903.6107245225
 21
622.7803727514
 31
0.0
  0
LINE
  5
3A7
330
1F
100
AcDbEntity
  8
0
  6
Continuous
 62
     8
370
    18
100
AcDbLine
 10
797.6107245225
 20
628.0303727514
 30
0.0
 11
797.6107245225
 21
623.5303727514
 31
0.0
  0
ARC
  5
3A8
330
1F
100
AcDbEntity
  8
0
  6
Continuous
 62
     8
370
    18
100
AcDbCircle
 10
797.6107245225
 20
649.7803727514
 30
0.0
 40
26.25000000000011
100
AcDbArc
 50
90.0
 51
270.0
  0
LINE
  5
3A9
330
1F
100
AcDbEntity
  8
0
  6
Continuous
 62
     8
370
    18
100
AcDbLine
 10
797.6107245225
 20
623.5303727514
 30
0.0
 11
797.6107245225
 21
622.7803727514
 31
0.0
  0
LINE
  5
3AA
330
1F
100
AcDbEntity
  8
0
  6
Continuous
 62
     8
370
    18
100
AcDbLine
 10
903.6107245225
 20
623.5303727514
 30
0.0
 11
797.6107245225
 21
623.5303727514
 31
0.0
  0
CIRCLE
  5
3AB
330
1F
100
AcDbEntity
  8
0
  6
Continuous
 62
     8
370
    18
100
AcDbCircle
 10
850.6107245225
 20
649.7803727514
 30
0.0
 40
3.548336454629748
  0
CIRCLE
  5
3AC
330
1F
100
AcDbEntity
  8
0
  6
Continuous
 62
     8
370
    18
100
AcDbCircle
 10
850.6107245225
 20
649.7803727514
 30
0.0
 40
5.61470943354675
  0
ARC
  5
3AD
330
1F
100
AcDbEntity
  8
0
  6
Continuous
 62
     8
370
    18
100
AcDbCircle
 10
850.6107245225
 20
649.7803727514
 30
0.0
 40
7.463480267439844
100
AcDbArc
 50
306.49444767
 51
53.5055523299
  0
ARC
  5
3AE
330
1F
100
AcDbEntity
  8
0
  6
Continuous
 62
     8
370
    18
100
AcDbCircle
 10
850.6107245225
 20
649.7803727514
 30
0.0
 40
7.463480267439909
100
AcDbArc
 50
126.4944476701
 51
233.50555233
  0
ARC
  5
3AF
330
1F
100
AcDbEntity
  8
0
  6
Continuous
 62
     8
370
    18
100
AcDbCircle
 10
850.6107245225
 20
649.7803727514
 30
0.0
 40
8.284968901367112
100
AcDbArc
 50
313.5974061618
 51
46.4025938382
  0
ARC
  5
3B0
330
1F
100
AcDbEntity
  8
0
  6
Continuous
 62
     8
370
    18
100
AcDbCircle
 10
850.6107245225
 20
649.7803727514
 30
0.0
 40
8.284968901367112
100
AcDbArc
 50
133.5974061618
 51
226.4025938382
  0
LINE
  5
3B1
330
1F
100
AcDbEntity
  8
0
  6
Continuous
 62
     8
370
    18
100
AcDbLine
 10
1141.6107245225
 20
614.7803727514
 30
0.0
 11
1141.6107245225
 21
699.2803727514
 31
0.0
  0
LINE
  5
3B2
330
1F
100
AcDbEntity
  8
0
  6
Continuous
 62
     8
370
    18
100
AcDbLine
 10
559.6107245225
 20
614.7803727514
 30
0.0
 11
559.6107245225
 21
699.2803727514
 31
0.0
  0
LINE
  5
3B3
330
1F
100
AcDbEntity
  8
0
  6
Continuous
 62
     8
370
    18
100
AcDbLine
 10
538.1107245225
 20
700.3053727514
 30
0.0
 11
538.1107245225
 21
699.3053727514
 31
0.0
  0
LINE
  5
3B4
330
1F
100
AcDbEntity
  8
0
  6
Continuous
 62
     8
370
    18
100
AcDbLine
 10
528.1107245225
 20
698.3053727514
 30
0.0
 11
558.6107245225
 21
698.3053727514
 31
0.0
  0
LINE
  5
3B5
330
1F
100
AcDbEntity
  8
0
  6
Continuous
 62
     8
370
    18
100
AcDbLine
 10
1163.1107245225
 20
699.3053727514
 30
0.0
 11
1163.1107245225
 21
700.3053727514
 31
0.0
  0
LINE
  5
3B6
330
1F
100
AcDbEntity
  8
0
  6
Continuous
 62
     8
370
    18
100
AcDbLine
 10
1142.6107245225
 20
698.3053727514
 30
0.0
 11
1173.1107245225
 21
698.3053727514
 31
0.0
  0
ENDSEC
  0
SECTION
  2
OBJECTS
  0
DICTIONARY
  5
C
330
0
100
AcDbDictionary
281
     1
  3
ACAD_GROUP
350
D
  3
ACAD_LAYOUT
350
1A
  3
ACAD_MLINESTYLE
350
17
  3
ACAD_PLOTSETTINGS
350
19
  3
ACAD_PLOTSTYLENAME
350
E
  3
ACAD_SCALELIST
350
47
  0
DICTIONARY
  5
D
102
{ACAD_REACTORS
330
C
102
}
330
C
100
AcDbDictionary
281
     1
  0
DICTIONARY
  5
1A
102
{ACAD_REACTORS
330
C
102
}
330
C
100
AcDbDictionary
281
     1
  3
Layout1
350
1E
  3
Layout2
350
26
  3
Model
350
22
  0
DICTIONARY
  5
17
102
{ACAD_REACTORS
330
C
102
}
330
C
100
AcDbDictionary
281
     1
  3
Standard
350
18
  0
DICTIONARY
  5
19
102
{ACAD_REACTORS
330
C
102
}
330
C
100
AcDbDictionary
281
     1
  0
ACDBDICTIONARYWDFLT
  5
E
102
{ACAD_REACTORS
330
C
102
}
330
C
100
AcDbDictionary
281
     1
  3
Normal
350
F
100
AcDbDictionaryWithDefault
340
F
  0
DICTIONARY
  5
47
102
{ACAD_REACTORS
330
C
102
}
330
C
100
AcDbDictionary
281
     1
  3
A0
350
48
  3
A1
350
49
  3
A2
350
4A
  3
A3
350
4B
  3
A4
350
4C
  3
A5
350
4D
  3
A6
350
4E
  3
A7
350
4F
  3
A8
350
50
  3
A9
350
51
  3
B0
350
52
  3
B1
350
53
  3
B2
350
54
  3
B3
350
55
  3
B4
350
56
  3
B5
350
57
  3
B6
350
58
  3
B7
350
59
  3
B8
350
5A
  3
B9
350
5B
  3
C0
350
5C
  3
C1
350
5D
  3
C2
350
5E
  3
C3
350
5F
  3
C4
350
60
  3
C5
350
61
  3
C6
350
62
  3
C7
350
63
  3
C8
350
64
  3
C9
350
65
  3
D0
350
66
  3
D1
350
67
  3
D2
350
68
  0
LAYOUT
  5
1E
102
{ACAD_REACTORS
330
1A
102
}
330
1A
100
AcDbPlotSettings
  1

  2
none_device
  4

  6

 40
0.0
 41
0.0
 42
0.0
 43
0.0
 44
0.0
 45
0.0
 46
0.0
 47
0.0
 48
0.0
 49
0.0
140
0.0
141
0.0
142
1.0
143
1.0
 70
   688
 72
     1
 73
     0
 74
     5
  7

 75
    16
147
1.0
148
0.0
149
0.0
100
AcDbLayout
  1
Layout1
 70
     1
 71
     1
 10
0.0
 20
0.0
 11
420.0
 21
297.0
 12
0.0
 22
0.0
 32
0.0
 14
1.0000000000E+20
 24
1.0000000000E+20
 34
1.0000000000E+20
 15
-1.0000000000E+20
 25
-1.0000000000E+20
 35
-1.0000000000E+20
146
0.0
 13
0.0
 23
0.0
 33
0.0
 16
1.0
 26
0.0
 36
0.0
 17
0.0
 27
1.0
 37
0.0
 76
     0
330
1B
  0
LAYOUT
  5
26
102
{ACAD_REACTORS
330
1A
102
}
330
1A
100
AcDbPlotSettings
  1

  2
none_device
  4

  6

 40
0.0
 41
0.0
 42
0.0
 43
0.0
 44
0.0
 45
0.0
 46
0.0
 47
0.0
 48
0.0
 49
0.0
140
0.0
141
0.0
142
1.0
143
1.0
 70
   688
 72
     1
 73
     0
 74
     5
  7

 75
    16
147
1.0
148
0.0
149
0.0
100
AcDbLayout
  1
Layout2
 70
     1
 71
     2
 10
0.0
 20
0.0
 11
0.0
 21
0.0
 12
0.0
 22
0.0
 32
0.0
 14
0.0
 24
0.0
 34
0.0
 15
0.0
 25
0.0
 35
0.0
146
0.0
 13
0.0
 23
0.0
 33
0.0
 16
1.0
 26
0.0
 36
0.0
 17
0.0
 27
1.0
 37
0.0
 76
     0
330
23
  0
LAYOUT
  5
22
102
{ACAD_REACTORS
330
1A
102
}
330
1A
100
AcDbPlotSettings
  1

  2
none_device
  4
Letter_(8.50_x_11.00_Inches)
  6

 40
6.35
 41
6.35
 42
6.35000508
 43
6.35000508
 44
215.9
 45
279.4
 46
0.0
 47
0.0
 48
0.0
 49
0.0
140
0.0
141
0.0
142
1.0
143
1.0
 70
  1712
 72
     1
 73
     0
 74
     0
  7

 75
     0
147
1.0
148
0.0
149
0.0
100
AcDbLayout
  1
Model
 70
     1
 71
     0
 10
0.0
 20
0.0
 11
2100.0
 21
1485.0
 12
0.0
 22
0.0
 32
0.0
 14
0.0
 24
0.0
 34
0.0
 15
2100.0
 25
1485.0
 35
0.0
146
0.0
 13
0.0
 23
0.0
 33
0.0
 16
1.0
 26
0.0
 36
0.0
 17
0.0
 27
1.0
 37
0.0
 76
     0
330
1F
331
29
  0
MLINESTYLE
  5
18
102
{ACAD_REACTORS
330
17
102
}
330
17
100
AcDbMlineStyle
  2
Standard
 70
     0
  3

 62
   256
 51
90.0
 52
90.0
 71
     2
 49
0.5
 62
   256
  6
BYLAYER
 49
-0.5
 62
   256
  6
BYLAYER
  0
ACDBPLACEHOLDER
  5
F
102
{ACAD_REACTORS
330
E
102
}
330
E
  0
SCALE
  5
48
102
{ACAD_REACTORS
330
47
102
}
330
47
100
AcDbScale
 70
     0
300
1:1
140
1.0
141
1.0
290
     1
  0
SCALE
  5
49
102
{ACAD_REACTORS
330
47
102
}
330
47
100
AcDbScale
 70
     0
300
1:2
140
1.0
141
2.0
290
     0
  0
SCALE
  5
4A
102
{ACAD_REACTORS
330
47
102
}
330
47
100
AcDbScale
 70
     0
300
1:4
140
1.0
141
4.0
290
     0
  0
SCALE
  5
4B
102
{ACAD_REACTORS
330
47
102
}
330
47
100
AcDbScale
 70
     0
300
1:5
140
1.0
141
5.0
290
     0
  0
SCALE
  5
4C
102
{ACAD_REACTORS
330
47
102
}
330
47
100
AcDbScale
 70
     0
300
1:8
140
1.0
141
8.0
290
     0
  0
SCALE
  5
4D
102
{ACAD_REACTORS
330
47
102
}
330
47
100
AcDbScale
 70
     0
300
1:10
140
1.0
141
10.0
290
     0
  0
SCALE
  5
4E
102
{ACAD_REACTORS
330
47
102
}
330
47
100
AcDbScale
 70
     0
300
1:16
140
1.0
141
16.0
290
     0
  0
SCALE
  5
4F
102
{ACAD_REACTORS
330
47
102
}
330
47
100
AcDbScale
 70
     0
300
1:20
140
1.0
141
20.0
290
     0
  0
SCALE
  5
50
102
{ACAD_REACTORS
330
47
102
}
330
47
100
AcDbScale
 70
     0
300
1:30
140
1.0
141
30.0
290
     0
  0
SCALE
  5
51
102
{ACAD_REACTORS
330
47
102
}
330
47
100
AcDbScale
 70
     0
300
1:40
140
1.0
141
40.0
290
     0
  0
SCALE
  5
52
102
{ACAD_REACTORS
330
47
102
}
330
47
100
AcDbScale
 70
     0
300
1:50
140
1.0
141
50.0
290
     0
  0
SCALE
  5
53
102
{ACAD_REACTORS
330
47
102
}
330
47
100
AcDbScale
 70
     0
300
1:100
140
1.0
141
100.0
290
     0
  0
SCALE
  5
54
102
{ACAD_REACTORS
330
47
102
}
330
47
100
AcDbScale
 70
     0
300
2:1
140
2.0
141
1.0
290
     0
  0
SCALE
  5
55
102
{ACAD_REACTORS
330
47
102
}
330
47
100
AcDbScale
 70
     0
300
4:1
140
4.0
141
1.0
290
     0
  0
SCALE
  5
56
102
{ACAD_REACTORS
330
47
102
}
330
47
100
AcDbScale
 70
     0
300
8:1
140
8.0
141
1.0
290
     0
  0
SCALE
  5
57
102
{ACAD_REACTORS
330
47
102
}
330
47
100
AcDbScale
 70
     0
300
10:1
140
10.0
141
1.0
290
     0
  0
SCALE
  5
58
102
{ACAD_REACTORS
330
47
102
}
330
47
100
AcDbScale
 70
     0
300
100:1
140
100.0
141
1.0
290
     0
  0
SCALE
  5
59
102
{ACAD_REACTORS
330
47
102
}
330
47
100
AcDbScale
 70
     0
300
1/128" = 1'-0"
140
0.0078125
141
12.0
290
     0
  0
SCALE
  5
5A
102
{ACAD_REACTORS
330
47
102
}
330
47
100
AcDbScale
 70
     0
300
1/64" = 1'-0"
140
0.015625
141
12.0
290
     0
  0
SCALE
  5
5B
102
{ACAD_REACTORS
330
47
102
}
330
47
100
AcDbScale
 70
     0
300
1/32" = 1'-0"
140
0.03125
141
12.0
290
     0
  0
SCALE
  5
5C
102
{ACAD_REACTORS
330
47
102
}
330
47
100
AcDbScale
 70
     0
300
1/16" = 1'-0"
140
0.0625
141
12.0
290
     0
  0
SCALE
  5
5D
102
{ACAD_REACTORS
330
47
102
}
330
47
100
AcDbScale
 70
     0
300
3/32" = 1'-0"
140
0.09375
141
12.0
290
     0
  0
SCALE
  5
5E
102
{ACAD_REACTORS
330
47
102
}
330
47
100
AcDbScale
 70
     0
300
1/8" = 1'-0"
140
0.125
141
12.0
290
     0
  0
SCALE
  5
5F
102
{ACAD_REACTORS
330
47
102
}
330
47
100
AcDbScale
 70
     0
300
3/16" = 1'-0"
140
0.1875
141
12.0
290
     0
  0
SCALE
  5
60
102
{ACAD_REACTORS
330
47
102
}
330
47
100
AcDbScale
 70
     0
300
1/4" = 1'-0"
140
0.25
141
12.0
290
     0
  0
SCALE
  5
61
102
{ACAD_REACTORS
330
47
102
}
330
47
100
AcDbScale
 70
     0
300
3/8" = 1'-0"
140
0.375
141
12.0
290
     0
  0
SCALE
  5
62
102
{ACAD_REACTORS
330
47
102
}
330
47
100
AcDbScale
 70
     0
300
1/2" = 1'-0"
140
0.5
141
12.0
290
     0
  0
SCALE
  5
63
102
{ACAD_REACTORS
330
47
102
}
330
47
100
AcDbScale
 70
     0
300
3/4" = 1'-0"
140
0.75
141
12.0
290
     0
  0
SCALE
  5
64
102
{ACAD_REACTORS
330
47
102
}
330
47
100
AcDbScale
 70
     0
300
1" = 1'-0"
140
1.0
141
12.0
290
     0
  0
SCALE
  5
65
102
{ACAD_REACTORS
330
47
102
}
330
47
100
AcDbScale
 70
     0
300
1-1/2" = 1'-0"
140
1.5
141
12.0
290
     0
  0
SCALE
  5
66
102
{ACAD_REACTORS
330
47
102
}
330
47
100
AcDbScale
 70
     0
300
3" = 1'-0"
140
3.0
141
12.0
290
     0
  0
SCALE
  5
67
102
{ACAD_REACTORS
330
47
102
}
330
47
100
AcDbScale
 70
     0
300
6" = 1'-0"
140
6.0
141
12.0
290
     0
  0
SCALE
  5
68
102
{ACAD_REACTORS
330
47
102
}
330
47
100
AcDbScale
 70
     0
300
1'-0" = 1'-0"
140
12.0
141
12.0
290
     0
  0
ENDSEC
  0
EOF
